tablaturas, partituras y acordes para guitarra
Busca por banda/artista:
 
y/o título de la canción:
A B C D E F G H I J K L M N O P Q R S T U V W X Y Z 0 1 2 3 4 5 6 7 8 9 / Top 100 tabs
Categorías
Usuarios
usuario:
Darse de alta
password:
Artistas más visitados
Publicidad
TOP acordes y tablaturas de Puddle of mud


Bring Me Down
de Puddle of mud
Puntúa este acorde/tab:      
(0.6/5)
Reportar este acorde/tab
  Añadir a tus favoritos
  Imprimir
intro:
-|------------------------|
-|------------------------|
-|-2---5-------9--8--7----|
-|-2---5-------9--8--7----|
-|-0---3-------7--6--5----|
-|------------------------|

verse:
-|------------------------|
-|------------------------|
-|-2---5-------9--8--7----|   (PM)
-|-2---5-------9--8--7----|
-|-0---3-------7--6--5----|
-|------------------------|
Make no promises....     

refrão:
|------------------------------------|
|------------------------------------|
|-8---7---------5-----5--2-------9---|
|-8---7---------5-----5--2-------9---|
|-6---5---------3-----3--0-------7---|
|------------------------------------|
Why you gotta bring me down.......                

letra:

Make no promises to me
you slowly melting
wake up then fall back asleep
your quickly fading
hey man you’ll have to wait your turn
I can see that you jonesing
taste no flavors on my tongue
they’ve evaporated, you’ve disintegrated

why you gotta bring me down
why you gotta bring me
bring me down

charma comes around two times
so you better be good
watch out for unfamiliar signs 
when your going the wrong way
look back to the devious minds
they keep pushing and pulling
baby Jesus never sleeps 
when your being a sinner
and he’ll eat you for dinner

why you gotta bring me down 
(4X)

What I hear about I don't want to think about down
What I think about I don't want to hear aobut bring me down
you want to bring me down 
you gotta bring me down

make no promises to me
you're slowly melting
baby Jesus never sleeps 
when your being a sinner
hey man you’ll have to wait your turn
I can see that your jonesing
taste no flavors on my tongue
they’ve evaporated you’ve disintegrated

why you gotta bring me down....

so don’t bring me down		   
AcordesyTabs.com © 2008 Acordes y Tablaturas para guitarra. Tabs and Chords for guitar. Aviso Legal - Contacto
El uso de este sitio está sujeto a la aceptación de los términos y condiciones (38 usuarios online)