tablaturas, partituras y acordes para guitarra
Busca por banda/artista:
 
y/o título de la canción:
A B C D E F G H I J K L M N O P Q R S T U V W X Y Z 0 1 2 3 4 5 6 7 8 9 / Top 100 tabs
Categorías
Usuarios
usuario:
Darse de alta
password:
Artistas más visitados
Publicidad
TOP acordes y tablaturas de Green day


Estás en: Inicio > Letra G > Acordes y tablaturas de Green day > Good riddance
Good riddance
de Green day
Puntúa este acorde/tab:      
(0.4/5)
Reportar este acorde/tab
  Añadir a tus favoritos
  Imprimir

Okay, I've got this song down perfectly, and I'm going to try and make
it as detailed as possible, so here goes!

At the beginning, he messes up a couple times, this is what he plays.
                           Then here's the beginning of the song
       G                         G           C                   
E----------------------|------------------------------------------
B----------------------|--------3--------------3------------3-----
G-------0---------0----|------0---0-----0----0--0----0----0---0--0
D-----0---0-----0---0--|------------------------------------------
A----------------------|--------------------------------3-------3-
E--3----------3--------|---3---------3-----3------3---------------
Play this 4X, then do this 2x
     D              EM           D             C              G
E-------------|-----------------------------------------------------
B-----3-------|------3------------3-------------3------------3------
G---2---2---2-|----0---0--------2---2---2-----0---0---0----0---0---0
D-0-------0---|---------------0-------0-----------------------------
A-------------|-2--------2------------------3-------3---------------
E-------------|------------------------------------------3-------3--
this 2X                    
E----------------------|-----------------------------|
B-----3----------3-----|-----3-----------3-----------|
G---0---0-0----0---0-0-|---0---0--0----2---2---2-----|
D----------------------|-------------0-------0-------|
A-2------2-------------|-2------2--------------------|
E------------3------3--|---------------------------3-|

Alright, now he starts strumming.  I'll try and give you the strum
pattern

Start with a G and Down Down Up Down Up UP down up down up then switch
 to a C down down up down switch to a D UP UP DOWN UP DOWN UP
 Then repeat 5 times.  Same pattern but now with EM, D, C, and G

then it starts picking again, here's the chord progression
G, C, and D.  The exact same picking pattern as before.  This is an
EXCELLENT tab, just listen to the song and play around with the stuff
I've given you, and you'll have it down in no time!  Good luck!

knicholes@yahoo.com

		   
AcordesyTabs.com © 2008 Acordes y Tablaturas para guitarra. Tabs and Chords for guitar. Aviso Legal - Contacto
El uso de este sitio está sujeto a la aceptación de los términos y condiciones (30 usuarios online)