tablaturas, partituras y acordes para guitarra
Busca por banda/artista:
 
y/o título de la canción:
A B C D E F G H I J K L M N O P Q R S T U V W X Y Z 0 1 2 3 4 5 6 7 8 9 / Top 100 tabs
Categorías
Usuarios
usuario:
Darse de alta
password:
Artistas más visitados
Publicidad
TOP acordes y tablaturas de The ataris


Estás en: Inicio > Letra T > Acordes y tablaturas de The ataris > In this diary
In this diary
de The ataris
Puntúa este acorde/tab:      
(0.4/5)
Reportar este acorde/tab
  Añadir a tus favoritos
  Imprimir
RIFF 1
e----------------------------------------------------------------------------------------------- | 
B-------------------------------------------------------------------------------------------------------- | 
G--5-5-5-5-5-5-5-5-5-5-5-5-5-5-8-8-8-8-8-8-8-5-5-5-5-5-5-5-5-5-6-6-6-6-6-6-6-5-5-5-5-5-5-5-5-6-6-6-6-6-6-6-- | 
D--6-6-6-6-6-6-6-6-6-6-6-6-6-6-6-6-6-6-6-6-6-6-6-6-6-6-6-6-6-6-6-6-6-6-6-6-6-6-6-6-6--6-6-6-6-6--6-6-6-6-6----- | 
A------------------------------------------------------------------------------------------------- | 
E---------------------------------------------------------------------------------------- | 


RIFF 2
e-------------------------- | 
B------------------------------- | 
G--5--5--5--5--3--3--3--3--3--3--- | 
D---6--6--6--6--1--1--1--1--1--1------ | 
A--------------------- | 
E---------------------------------- | 

RIFF 3 (2 vezes)
e---------------------- | 
B------------ | 
G--6-6-6-6-5-5-5-5-- | 
D--xxxxxxxxxxxxxxx---- | 
A--4-4-4-4-3-3-3-3------ | 
E------------------ | 

RIFF 5
e----------------------- | 
B---------------------------- | 
G--6-6-6-6-10-10-10-10--- | 
D--XXXXXXXXXXXXXXX---------- | 
A--4-4-4-4-8-8-8-8------ | 
E---------------------------- | 

RIFF 6
e------- | 
B----------- | 
G--5-5-6-5---- | 
D--6-6-6-6-- | 
A----------- | 
E------------- | 

RIFF 7
e-------------- | 
B-------- | 
G--8-6-5/6-- | 
D--xxxxxx----- | 
A--6-4-3/4-------- | 
E-------------------- | 

RIFF 8
e--8--8--9--8--- | 
B----9--9--9--9---- | 
G----------------- | 
D------------------- | 
A--------------------- | 
E------------------- | 

RIFF 9
e------------------------------ | 
B--------------------------- | 
G--13-12-13-12-10-8-13-15-13--- | 
D--xxxxxxxxxxxxxxxxxxxxxxxxx- | 
A--11-10-11-10-8-6--11-13-11----- | 
E---------------------------- | 

RIFF 10
e-------------------------- | 
B---------------------- | 
G--5--5--5--5--8--8--8--8---- | 
D----6--6--6--6--6--6--6--6---- | 
A-------------------------- | 
E----------------------------- | 

INTRODUÇÃO - RIFF 1

D# F                  D#
   Here in this diary,
                            G#
I write you visions of my summer.
            C#
It was the best I ever had.
             F         (segunda guitarra faz riff 2) 
There were choruses and sing-alongs,
     D#
and not a spoken feeling.
    C# (segunda guitarra faz riff 3)
I'm knowing that right now is all that matters.


F                                 D#
All the nights we stayed up talking
                  G#
and listening to 80's songs;
          C#                                  (segunda guitarra faz riff 10)
quoting lines from all those movies that we love.
 F                             C# (segunda guitarra faz riff 3)
It still brings a smile to my face.
Bb                     C#          (segunda guitarra faz riff 5)
I guess when it comes down to it...

       REFRÃO
F            D#          G#               C#    
Being grown up isn't half as fun as growing up:
F              D#               C# (segunda guitarra faz riff 6)
These are the best days of our lives.
F                   D#
The only thing that matters
       G#               C# (segunda guitarra faz riff 7)
is just following your heart
    F                 D#          
and eventually you'll finally get it right.

        RIFF
e------------------------------------------------------- | 
B---------------------------------------------------- | 
G--4-4-4-4-4-4-4-4-5-5-5-5-5-5-5-5-4-4-4-4-4-4-4-4-5-5-5-5-5-5-5-5--- | 
D--6-6-6-6-6-6-6-6-6-6-6-6-6-6-6-6-6-6-6-6-6-6-6-6-6-6-6-6-6-6-6-6----- | 
A---------------------------------------------------------------- | 
E--------------------------------------------------------------------------- | 


D# F                     D#
   Breaking into hotel swimming pools,
                      G#
and wreaking havoc on our world.
           C#
Hanging out at truck stops just to pass the time.
F (segunda faz Riff 10)  D#          C# (segunda guitarra faz Riff 3)
The black top's singing me to sleep.


F                      D#
Lighting fireworks in parking lots,
                G#       
illuminate the blackest nights.
        C#                                (segunda guitarra faz Riff 10)
Cherry cokes under this moonlit summer sky.
F           D#                        C# (segunda faz Riff 3)
2015 Riverside, it's time to say, "goodbye."
Bb            C#            (segunda faz Riff 5)
Get on the bus, it's time to go.

   REFRÃO
F            D#          G#               C#    
Being grown up isn't half as fun as growing up:
F              D#               C#  (segunda guitarra faz Riff 6)
These are the best days of our lives.
F                   D#
The only thing that matters
       G#               C# (segunda guitarra faz Riff 7)
is just following your heart
    F                 D#          
and eventually you'll finally get it right.

   RIFF 4
                "get it right....get it right"
e--------------------------------------------------------------------------------------------------------------------------------------------- | 
B--------------------------------------------------------------------------------------------------------------------------------------------------------------- | 
G--3-3-3-3-3-3-3-5-5-5-5-5-5-5-3-3-3-3-3-3-3-5-5-5-5-5-5-5-6-6-6-6-6-6-6-6-6-6-6-6-6-6-3-3-3-3-3-3-3-3-5-5-5-5-5-5-5-5-8-8-8-8-8-8-8-8-5-5-5-5-5-5-5-5-5-5-5-5-5-5-5--- | 
D--6-6-6-6-6-6-6-6-6-6-6-6-6-6-6-6-6-6-6-6-6-6-6-6-6-6-6-6-6-6-6-6-6-6-6-6-6-6-6-6-6-6-6-6-6-6-6-6-6-6-6-6-6-6-6-6-6-6-6-6-6-6-6-6-6-6-6-6-6-6-6-6-6-6-5-5-5-5-5-5-5------- | 
A----------------------------------------------------------------------------------------------------------------------------------------------------------------------- | 
E------------------------------------------------------------------------------------------------------------------------------------------------------ | 

  REFRÃO

F            D#          G#               C#    
Being grown up isn't half as fun as growing up:
F              D#               C# (segunfa guitarra faz Riff 8)
These are the best days of our lives.
          F               D#
The only thing that matters
       G#               C# (segunda guitarra faz Riff 7)
is just following your heart
    F                               C#          
and eventually you'll finally get it right.

    REFRÃO COM RIFF 9


F            D#          G#               C#    
Being grown up isn't half as fun as growing up:
F              D#               C#
These are the best days of our lives.
          F               D#
The only thing that matters
       G#               C#
is just following your heart
    F                 D#               C#
and eventually you'll finally get it right. 		   
AcordesyTabs.com © 2008 Acordes y Tablaturas para guitarra. Tabs and Chords for guitar. Aviso Legal - Contacto
El uso de este sitio está sujeto a la aceptación de los términos y condiciones (22 usuarios online)