tablaturas, partituras y acordes para guitarra
Busca por banda/artista:
 
y/o título de la canción:
A B C D E F G H I J K L M N O P Q R S T U V W X Y Z 0 1 2 3 4 5 6 7 8 9 / Top 100 tabs
Categorías
Usuarios
usuario:
Darse de alta
password:
Artistas más visitados
Publicidad
TOP acordes y tablaturas de The breeders


Iris
de The breeders
Puntúa este acorde/tab:      
(0.5/5)
Reportar este acorde/tab
  Añadir a tus favoritos
  Imprimir
 Intro
 e---------------------- | 
 b----4-3---4-4-3-4-3--- | 
 g---------------------- | 
 
    F#
 e---0----0-- | 
 b---0----0-- | 
 g---3----3-- | 
 d---4----4-- | 
 a---4----4-- | 
 e---2--0h2-- | 

F#
four hours in a pot, one hour out

it grows and i sleep standing up

when iris sleeps over

what a book she'll write


C#       E         F#
stay for last time
C#          E            F#
oh come on, nobody wants that
       C#         E  F#    B     A
sister -  sister,    oh oh oh oh oh


F#
we tried hour by hour
hour by hour
hour by hour

 e--------------------------------
 b----12-11---11-11-11/9/7--------
 g--------------------------------
 
 F# 

 2x
 g--------------------------------
 d--------------------------------
 a------------4--11/4----------     
 e----2---4h5--------------9/2----

F#
four hours to daylight, four hours and then

pour water on me til i live again

when iris sleeps over

it'll be alright


C#  E          F#
all last night
        C#          E            F#
because -  come on, nobody wants that
       C#         E  F#    B     A
sister,   sister,    oh oh oh oh oh


F#
we tried hour by hour
hour by hour
hour by hour


 e----------------------------
 b----12-11---11-11-11/9-7----
 g---------------------------- 		   
AcordesyTabs.com © 2008 Acordes y Tablaturas para guitarra. Tabs and Chords for guitar. Aviso Legal - Contacto
El uso de este sitio está sujeto a la aceptación de los términos y condiciones (11 usuarios online)