tablaturas, partituras y acordes para guitarra
Busca por banda/artista:
 
y/o título de la canción:
A B C D E F G H I J K L M N O P Q R S T U V W X Y Z 0 1 2 3 4 5 6 7 8 9 / Top 100 tabs
Categorías
Usuarios
usuario:
Darse de alta
password:
Artistas más visitados
Publicidad
TOP acordes y tablaturas de 3 Doors Down


Be Like That
de 3 Doors Down
Puntúa este acorde/tab:      
(0.4/5)
Reportar este acorde/tab
  Añadir a tus favoritos
  Imprimir
Song: Be Like That
Band: 3 Doors Down

Riff A:
(Gtr. 1)
-------3-------------0---------------0-------------0-----
---------3-------3-----3-----------3---3---------3---3---
-----------0-------------2---------------0-------------0-
---0---------0-0---0-------0-----------------2-----------
-------------------------------2-----------3---3---------
-3---3-----------------------0-0-0-----------------------

Riff B:
(Gtr. 2)
----------------------------------------------------------
----------------------------------------------------------
----------------------------------------------------------
---------------7---------------------------5--------------
-5-------------5-------------2-------------3--------------
-3---------------------------0----------------------------

Chorus:
(Gtr. 1)
G    Dsus2    Em    Cadd9

Chorus:
(Gtr. 2)
G5   D5       E5    C5

Bridge:
(Gtr. 1)
C    Cmaj7     C    (Em    Dsus2? I don't have the recording at the
                                  moment...  You can figure it out, 
                                  it's pretty easy.)

		   
AcordesyTabs.com © 2008 Acordes y Tablaturas para guitarra. Tabs and Chords for guitar. Aviso Legal - Contacto
El uso de este sitio está sujeto a la aceptación de los términos y condiciones (26 usuarios online)