tablaturas, partituras y acordes para guitarra
Busca por banda/artista:
 
y/o título de la canción:
A B C D E F G H I J K L M N O P Q R S T U V W X Y Z 0 1 2 3 4 5 6 7 8 9 / Top 100 tabs
Categorías
Usuarios
usuario:
Darse de alta
password:
Artistas más visitados
Publicidad
TOP acordes y tablaturas de Sum 41


Estás en: Inicio > Letra S > Acordes y tablaturas de Sum 41 > Motivation
Motivation
de Sum 41
Puntúa este acorde/tab:      
(0.3/5)
Reportar este acorde/tab
  Añadir a tus favoritos
  Imprimir

Title: motivation
Artist: sum 41
Album: all killer no filler

Intro part 1
D|---22----22----22----22----------------------
A|---22----22----22----22----------------------
E|----00----00----00----00-12\---------------

Intro part 2
D|--2-2-6-7-7-6-2-2-6-7-7-6-2-2-6-7-7-6-9-9-6-7-7-6-
A|--2-2-6-7-7-6-2-2-6-7-7-6-2-2-6-7-7-6-9-9-6-7-7-6-
E| --0-0-4-5-5-4-0-0-4-5-5-4-0-0-4-5-5-4-7-7-4-5-5-4-

Verse
D|--222-666-777-999-
A|--222-666-777-999
E|--000-444-555-777-
     **    **   **    **

chorus
G|---999-99-999-99--------------------999-99-999-99--------------------------------
D|---999-99-999-99-999-99-999-99-999-99-999-99—777-77-999-99-7----9---
A|---777-77-777-77-999-99-999-99-777-77-777-77---777-77-999-99-7----9---
E|----------------------777-77-777-77----------------------555-55-777-77-5----7---

Nothings new
G|----4-2
D|--4-4-2
A|--4-2-0
E|--2-----

Interlude
G|--------44---------22-
D|--22—44—44—22-
A|--22---22---44---00-
E|--00---------22-------


Oh and heres the solo thingy
D|--22-5-4-2-0-----0-0-2-2
A|--22-----------4-0---------
E|--00------------------------
I think every things there and im 99% sure its right


		   
AcordesyTabs.com © 2008 Acordes y Tablaturas para guitarra. Tabs and Chords for guitar. Aviso Legal - Contacto
El uso de este sitio está sujeto a la aceptación de los términos y condiciones (36 usuarios online)