tablaturas, partituras y acordes para guitarra
Busca por banda/artista:
 
y/o título de la canción:
A B C D E F G H I J K L M N O P Q R S T U V W X Y Z 0 1 2 3 4 5 6 7 8 9 / Top 100 tabs
Categorías
Usuarios
usuario:
Darse de alta
password:
Artistas más visitados
Publicidad
TOP acordes y tablaturas de Alice in chains


Down in a hole
de Alice in chains
Puntúa este acorde/tab:      
(0.4/5)
Reportar este acorde/tab
  Añadir a tus favoritos
  Imprimir
Verse 8x - "Bury me softly..."
|---------------------------:---------------------7h9p7---|
|-------------7-5-----------:-------------7-5-----------9-|
|--------5/7------7-5---5-0-:--------5/7------7-5---------|
|-5--5-7--------------------:-5--5-7----------------------|


Verse fill on 4th and 8th time
|---------------------------:-----------------------------|
|------same as above--^-^---:-------------7-5-------------|
|---------------------|-|---:--------5/7------7-5-5h7p5---|
|---------------------------:-5--5-7--------------------5-|


Pre-chorus 4x - "Down in a hole and I don't know..."
|------------------------------:-------------------------------|
|--------------5--5-5----------:--------------5--5-5-----------|
|---------------------5--5-5---:---------------------5-5h7p5---|
|-5-5-5-5--5-5---------------7-:-5-5-5-5--5-5----------------7-|


Chorus 4x - "Down in a hole..."
|-----------------------------------|
|---------------5-5-5-5-------------|
|-----------5-7---------5-5-5h7p5---|
|-5-5-5-5-5-----------------------7-|


Riff 1x - "I'de like to fly..."
|---------------------------:-------------------|
|---------------------------:-------------------|
|----------3--3-3-3-3-3-333-:-------------------|
|-5--3--0-------------------:-0-5h7p5-3-1-0-----|


play Verse 1x

play Pre-chorus 4x

play Chorus 4x

play Riff 1x

play Verse 8x

play chorus 8x

play Riff 1x

play Verse 2x		   
AcordesyTabs.com © 2008 Acordes y Tablaturas para guitarra. Tabs and Chords for guitar. Aviso Legal - Contacto
El uso de este sitio está sujeto a la aceptación de los términos y condiciones (21 usuarios online)