tablaturas, partituras y acordes para guitarra
Busca por banda/artista:
 
y/o título de la canción:
A B C D E F G H I J K L M N O P Q R S T U V W X Y Z 0 1 2 3 4 5 6 7 8 9 / Top 100 tabs
Categorías
Usuarios
usuario:
Darse de alta
password:
Artistas más visitados
Publicidad
TOP acordes y tablaturas de Bon jovi


Estás en: Inicio > Letra B > Acordes y tablaturas de Bon jovi > Living on a prayer
Living on a prayer
de Bon jovi
Puntúa este acorde/tab:      
(0.3/5)
Reportar este acorde/tab
  Añadir a tus favoritos
  Imprimir
   play 16 times                 1st verse
||----------------------------||--------------------------|-------------
||o--------------------------o||o-------------------------|-------------
||o-----7-----5------------5-o||o----7-----5-----------5--|----7-----5--
||---0-----7-----0--0--7------||--0-----7-----0--0--7-----|-0-----7-----
                                                                        
                                                                        
--------------|-------------------------|------------------------------|
--------------|-------------------------|------------------------------|
-----------5--|----7-----5-----------5--|----7-----5-----------5-------|
--0--0--7-----|-0-----7-----0--0--7-----|-0-----7-----0--0--7----------|
                                                                        
                                                                        
|------------------------|------------------------|------------------------|
|------------------------|------------------------|------------------------|
|----7-----5-----------5-|----7-----5-----------5-|----7-----5-----------5-|
|-0-----7-----0--0--7----|-0-----7-----0--0--7----|-0-----7-----0--0--7----|
                                                                        
1.                            2.                                        
|--------------------------||---------------------------|
|--------------5--4--5--4-o||-----------------4--5------|
|-----7-----5-------------o||-----7-----5--7--------2---|
|--0-----7-----------------||--0-----7------------------|
                                                                        
1st Pre-Chorus                                                          

|------------------------|----------------------|-----------------------|
|------------------------|----------------------|-----------------------|
|-3--3--3--5--5--5--5--5-|-5--5--5--5--7--7--7-|-3--3--3--5--5--5--5---|
|------------------------|----------------------|---------------------5-|
                                                                        
                                                                        
|------------------|------------------------|--------------------------|
|------------------|------------------------|--------------------------|
|-5--7/9--7--7--7-|-3--3--3--5--5--5--5--5-|-5--5--5--5--7--7--5-----|
|------------------|------------------------|--------------------------|
                                                                        
                                                                        
|------------------------|----------------------|
|------------------------|----------------------|
|-3--------3-----------3-|--5--5----5--5--------|
|----3--5--------3--5----|-----------------12--|
                                                                        
1st chorus                                                              

|-----------------------|------------------------|----------------------|
|-----------------------|-------------------2--4-|-5--------------------|
|----------3----2--3--4-|-5--5--5--5--5--5-------|----5--2--3----2--3-4-|
|-0--2--3---------------|------------------------|----------------------|
                                                                        
                                                                        
|----------------------------|--------------------------|---------------
|----------------------------|--------------------2--4--|-5-------------
|-5--5--5--5--5--------------|--5--5--5--5--5--5--------|----5--2--3--2-
|-----------------x--0--3--2-|--------------------------|---------------


------|----------------------||---------------------------||
------|----------------------||o-------------------------o||
-3--4-|-5--5--5--5--5--5--5--||o-----7-----5-----------5-o||
------|----------------------||---0-----7-----0--0--7-----||
                                                                        

2nd Verse
                                                                        
||---------------------------|------------------------|
||o--------------------------|------------------------|
||o------7-----5-----------5-|----7-----5-----------5-|
||----0-----7-----0--0--7----|-0-----7-----0--0--7----|
                                                                        
                                                                        
|-------------------------|------------------------|-----------------------|
|-------------------------|------------------------|-----------------------|
|----7-----5-----------5--|----7-----5-----------5-|----7-----5-----------5|
|-0-----7-----0--0--7-----|-0-----7-----0--0--7----|-0-----7-----0--0--7---|
                                                                        
                           1.                                           
|------------------------|--------------------------||
|------------------------|-------------------------o||
|----7-----5-----------5-|-----7-----5/10--9--7--5-o||
|-0-----7-----0--0--7----|--0-----7-----------------||
                                                                        
2.                         2nd pre chorus                               
|-------------------------|------------------------|--------------------
|-------------------------|------------------------|--------------------
|----7-----5--------0--2--|-3--3--3--5--5--5--5--5-|-5--5--5--5--7--7---
|-0-----7-----0--3--------|------------------------|--------------------
                                                                        
                                                                        
--------|------------------------|---------------------|----------------
--------|------------------------|---------------------|----------------
--7--7-|-3--3--3--5--5--5--5----|-5--7/9--7--7--7--7-|-3--3--3--5--5--
--------|----------------------5-|---------------------|----------------
                                                                        
                                                                        
----------|----------------------|-----------------------|--------------
----------|----------------------|-----------------------|--------------
--5--5--5-|-5--5--5--5--7--7--5-|-3--------3----------3-|-5--5----5--5-
----------|----------------------|----3--5-------3--5----|--------------
                                                                        
         2nd chorus                                                   
-------|-----------------------|------------------------|---------------
-------|-----------------------|-------------------2--4-|-5-------------
-------|----------3----2--3--4-|-5--5--5--5--5--5-------|----5--2--3----
--12--|-0--2--3---------------|------------------------|---------------
                                                                        
                                                                        
-----------|---------------------------|-------------------------------|
-----------|---------------------------|-------------------------------|
--2--3--4--|-5--5--5--5--5-------------|----------3----2--3/7----------|
-----------|----------------x--0--3--2-|-0--2--3-----------------------|


|-------------------------|------------------------|--------------------
|--------------------2--4-|-5----------------------|--------------------
|--5--5--5--5--5--5-------|----5--2--3----2--3--4--|-5--5--5--5--5--5---
|-------------------------|------------------------|--------------------
                                                                        
                                                                        
--------|-------------------------|------------------------------------|
--------|----------5--------9/10--|------------------------------------|
--0--2--|--3----------------------|------------------------------------|
--------|-------------------------|-------------12--------------------|
                                                                        
Guitar solo                                                             
|------------------------|------------------------|---------------------|
|------------------------|-------------2--2--4--4-|-5------------------2|
|-----------3----3--3--4-|-5--5--5--5-------------|----5--2--3----2--3--|
|--0--2--3---------------|------------------------|---------------------|
                                                                        
                                                                        
|---------------------------|-----------------------|-------------------
|---------------------------|-----------------------|-------------------
|-5--5--5--5--5-------------|----------3----2--3--4-|-5--5--5--5--5--5--
|----------------x--0--3--2-|-0--2--3---------------|-------------------
                                                                        
                                                                        
-------|-----------------|-------------------------|--------------------
--2--4-|--5--------------|-------------------------|--------------------
-------|-----5--2--3--/--|-------------------------|-------------------0
-------|-----------------|-0--0--0--0--0--0--0--0--|-0--0--0--0--0--0---
                                                                        
      3rd pre chorus                                                    
----|------------------------|---------------------|-------------------|
----|------------------------|---------------------|-------------------|
--2-|-3--3--3--5--5--5--5--5-|-5--5--5--5--7--7--5-|-3--3-3--3---------|
----|------------------------|---------------------|-------------------|
                                                                        
                                                                        
|-----------------|
|-----------------|
|---5--5----5--5-|
|-----------------|
                                                                        
                                                                        
3rd chorus
||-------------------------|------------------------|-------------------
||o------------------------|-------------------5--7-|-8-----------------
||o-----------6----5--6--7-|-8--8--8--8--8--8-------|----8--5--6----5--6
||---3--5--6---------------|------------------------|-------------------
                                                                        
                                                                        
----|---------------------------|-----------------------|---------------
----|---------------------------|-----------------------|----------5--5-
--7-|-8--8--8--8--8-------------|----------6----5--6/10-|-8--8--8-------
----|----------------x--5--6--5-|-3--5--6---------------|---------------


                                   play 3times then fade
---------|-----------------------|------------------------------------||
-5--7--7-|-8---------------------|-----------------------------------o||
---------|----8--5--6----5--6--7-|-8--------8--------8--------8------o||
---------|-----------------------|----8--8-----8--8-----8--8-----x-5--||

h = hammeron                                             
p = pulloff                     
/ = slide                                            
x = ghost note                                      
t = tap (right hand)            
~ = vibrato                     
bf = bend full                  
tr = trill
rb = release bend               
p.s. = pick scrape
dive = dive with bar
b = bend / step written over note
* = picked harmonic		   
AcordesyTabs.com © 2008 Acordes y Tablaturas para guitarra. Tabs and Chords for guitar. Aviso Legal - Contacto
El uso de este sitio está sujeto a la aceptación de los términos y condiciones (17 usuarios online)