tablaturas, partituras y acordes para guitarra
Busca por banda/artista:
 
y/o título de la canción:
A B C D E F G H I J K L M N O P Q R S T U V W X Y Z 0 1 2 3 4 5 6 7 8 9 / Top 100 tabs
Categorías
Usuarios
usuario:
Darse de alta
password:
Artistas más visitados
Publicidad
TOP acordes y tablaturas de Eagles


Estás en: Inicio > Letra E > Acordes y tablaturas de Eagles > The long run
The long run
de Eagles
Puntúa este acorde/tab:      
(0.5/5)
Reportar este acorde/tab
  Añadir a tus favoritos
  Imprimir
Intro / Verse:

G|--------------------------|--------------------------|
D|--------------------------|--------------------5-----|
A|--3--3--0-----3-----0-----|--3--3--0-----3--3-----3--|
E|-----------3-----3-----3--|-----------3--------------|


G|--------------------------|--------------------------|
D|--3--3--0-----3-----0-----|--3--3--------------------|
A|-----------3-----3-----3--|--------0--0--1--1--2--2--|
E|--------------------------|--------------------------|


(0:19 last bar of intro only)

G|--------2--x--3--x--4--5--|
D|--3--3--------------------|
A|--------------------------|
E|--------------------------|


Bridge: (0:41)

G|--------------------------|--------------------------|
D|--------------------------|--------------------------|
A|--0--0--0--0--0--0--0--0--|--0--0--0--0--0--0--0--0--|
E|--------------------------|--------------------------|


G|--------------------------|--------------------------|
D|--------------------------|--------------------------|
A|--------------------------|--------0--0--1--1--2--2--|
E|--1--1--1--1--1--1--1--1--|--1--1--------------------|


End of Chorus: (1:19)

G|--------------------------|--------------------------|
D|--------------------5-----|--3--3--------------------|
A|--3--3--0-----3--3-----3--|--------0--0--1--1--2--2--|
E|-----------3--------------|--------------------------|


G|--------------------------|--------------------------|
D|--------------------5-----|--X--5--5--5--5-----------|
A|--3--3--0-----3--3-----3--|--------------------------|
E|-----------3--------------|--------------------------|		   
AcordesyTabs.com © 2008 Acordes y Tablaturas para guitarra. Tabs and Chords for guitar. Aviso Legal - Contacto
El uso de este sitio está sujeto a la aceptación de los términos y condiciones (14 usuarios online)