tablaturas, partituras y acordes para guitarra
Busca por banda/artista:
 
y/o título de la canción:
A B C D E F G H I J K L M N O P Q R S T U V W X Y Z 0 1 2 3 4 5 6 7 8 9 / Top 100 tabs
Categorías
Usuarios
usuario:
Darse de alta
password:
Artistas más visitados
Publicidad
TOP acordes y tablaturas de Beatles


Estás en: Inicio > Letra B > Acordes y tablaturas de Beatles > I want you (she's so heavy)
I want you (she's so heavy)
de Beatles
Puntúa este acorde/tab:      
(0.5/5)
Reportar este acorde/tab
  Añadir a tus favoritos
  Imprimir
Intro:
------
                    {-------fast------}
G|-------------------10-------------------------------
D|--------3--5--7------10-------------------------7~--
A|--5--7----------7------12---------------------------
E|-------------------------13p12-8-7-6--8--10--5------
 
Verse 1:
--------
 
G|-----------------------------------------------------------------------
D|-----------------------------------------------------------------------
A|-----------------------------------------------------------------------
E|-------------5-5-5--------------------------5-5-5-5-------------5-5-5--
 
G|-----------------------------------------------------------------------------
D|-------------------------------------------------------3--------5--6--7------
A|----------------------------------------3------5------------------------7----
E|-------------5-5-5------------------5-------------------------------------5--
 

Chorus 1:
---------
 
G|---------------------7------------11-10------------------
D|-----------------3----------------------12-----12-12-12--
A|----------4---5------------------------------------------
E|--5-5--5----------------10-10-10-----------10------------
 
G|------14-12-----------------------10-----
D|------------13-12-12s1-0--12---------12--
A|-----------------------------------------
E|--10--------------------------10---------
 
G|--------------------------------------------------------------------------
---9-7---
D|-------------------3-----------------------------------------------5------
-9-----9-
A|--------------5-------3-----------1--------5-6-7---7-7-7-7-7-7-7-7---9-8-7
---------
E|-------------------------------------------------0------------------------
---------
 

G|----------------------------9-7--------------------------
D|------------------5-------9-----9-------------------3s14-
A|--7-7-7-7-7-7-7-7---9-8-7----------7-7-7-7-7-7-7-7-------
E|---------------------------------------------------------
                                                         
 
Verse 2:
--------
 
G|--------2-------------------------------------
D|---14s3------------------------7--------------
A|-----------5h7p5---------3-5-7----5h7p5-------
E|-----------------5-----7----------------8-7-5-
 
G|--5------------------------------------------------------------------------
D|-----7--------------7---------------------------------3--------5-6-7-------
A|--------------3-5-7------3-5-7-5-3----3----5---------------------------7---
E|---------5--7----------5-----------5-------------------------------------5-
 
Chorus 2:
---------
 
Repeat chorus 1
 

Middle 1:
---------
 
(I forget how the words go in this She's so heavy bit)
 
                           {-------fast---------------}
                           {********}
G|--------------------------10-10-10-------------------------------------
D|--14s3--------3--5--7--------------10--------------------------7~------
A|--------5--7-----------7--------------12--------------------------4-7--
E|-----------------------------------------13p12-8-7-6--8--10--5---------
         She's so...
    
                        {-------fast---------------}
                        {********}
G|-----------------------10-10-10-------------------------------------
D|------------3--5--7-------------10------------------------------7---
A|--8-7-5--7----------7--------------12-----------------------4-7-----
E|--------------------------------------13p12-8-7-6--8--10--5---------
 

Verse 3:
--------
 
G|-----------------------------------------------------------
D|-----------5--5-7-------5-5-5-7-------------5-5-5-7--------
A|-------5h7---------5h7-----------7-7----5h7-----------7-7--
E|-----5------------5------------5------5-------------5------
 
 
G|----------------------------------------------------------------
D|--------5-5-5-7-------------------------3----3--2--0------------
A|----5h7----------------3---3-5--------5--------------2h3p2------
E|--5---------------5--5------------------- ------------------3h5-
 
Chorus 3:
---------
 
G|-------------------------------------------7-7---------7-7-5---
D|--7-7-7-7-7-7-7-7--7---------------------7-----5-7---7-------7-
A|---------------------8-5-----------3--5------------5-----------
E|-------------------------7-5--5-5------------------------------
 
G|------7-5------10h11-10h11-7-------7--7--------
D|----7-----7-----------------------------5-7----
A|--5---------5----------------5--5-----------5--
E|-----------------------------------------------
 
G|--------7--7----------------------------------------------
D|--6--7---------------3----3-------------------------------
A|----------------5--5--------3--------3-1----1s5--5--6--7--
E|----------------------------------------------------------
 
G|-----------------------------9-7------------------------------9-7------
D|-------------------5-------9-----9------------------5-------9-----9----
A|---------7-7-7-7-7---9-8-7----------7-7-7-7-7-7-7-7---9-8-7---------7--
E|--0-0--0---------------------------------------------------------------
 
G|-----------------
D|-----------------
A|--7-7-7-7-7-7--7-
E|--0-0-0-0-0-0--0-
 
Middle 2:
---------
 
                      {-------fast---------------}
                      {********}
G|---------------------10-10-10-------------------------------------
D|---------3--5--7--------------10--------------------------7~------
A|---5--7-----------7--------------12--------------------------4-7--
E|------------------------------------13p12-8-7-6--8--10--5---------
 

                        {-------fast---------------}
                        {********}
G|-----------------------10-10-10-------------------------------------
D|------------3--5--7-------------10------------------------------7---
A|--8-7-5--7----------7--------------12-----------------------4-7-----
E|--------------------------------------13p12-8-7-6--8--10--5---------
 

Verse 4:
--------
 
Repeat verse 3
 

Chorus 4:
---------
 
Repeat Chorus 3
 

Middle 3:
---------
 
Repeat Middle 2
 

Verse 5:
--------
 
Repeat verse 3
 

Chorus 5:
---------
 
Repeat Chorus 3
 

Ending:
-------
 
                    {-------fast------}
G|-------------------10-------------------------------
D|--------3--5--7------10-------------------------7~--
A|--5--7----------7------12---------------------------
E|-------------------------13p12-8-7-6--8--10--5------
 
                        {-------fast---------------}
                        {********}
G|-----------------------10-10-10-------------------------------------
D|------------3--5--7-------------10--------------------------7~------
A|--8-7-5--7----------7--------------12--------------------------8-7--
E|--------------------------------------13p12-8-7-6--8--10--5---------
 
{********}=Very, very fast
 
Repeat the ending 5 or 6 times but I don't know do it as many times as you like		   
AcordesyTabs.com © 2008 Acordes y Tablaturas para guitarra. Tabs and Chords for guitar. Aviso Legal - Contacto
El uso de este sitio está sujeto a la aceptación de los términos y condiciones (45 usuarios online)