tablaturas, partituras y acordes para guitarra
Busca por banda/artista:
 
y/o título de la canción:
A B C D E F G H I J K L M N O P Q R S T U V W X Y Z 0 1 2 3 4 5 6 7 8 9 / Top 100 tabs
Categorías
Usuarios
usuario:
Darse de alta
password:
Artistas más visitados
Publicidad
TOP acordes y tablaturas de Beatles


Estás en: Inicio > Letra B > Acordes y tablaturas de Beatles > Revolution 1
Revolution 1
de Beatles
Puntúa este acorde/tab:      
(0.5/5)
Reportar este acorde/tab
  Añadir a tus favoritos
  Imprimir
G-------------------------------------------------------------------------------|
D---------------------------------4-7-4-7-----4-7-4-7---------------------------|
A-----4-7-4-7-----4-7-4-7-----4-5-----------5-------------4-7-4-7-----4-7-4-5-7-|
E---5-----------5-----------5---------------------------5-----------5-----------|


G-----------------------------------------------------------------------------|
D---------------------------------4-7-4-7-----4-7-4-7-------------------------|
A-----4-7-4-7-----4-7-4-7-----4-5-----------5-------------6-9-6-9-----6-9-6-9-|
E---5-----------5-----------5---------------------------7-----------7---------|


G---11-9-----------------9-9-------|-11-9------------------------|---------------|
D--------12-11-9-------------12-11-|------12-11-9------------8---|---------------|
A----------------12-11-9-----------|--------------12-11-9-11---9-|-9-9-9-7-5-4---|
E----------------------------------|-----------------------------|-------------7-|


G-------------------------|-----------------------|-----------------------|---|
D-----------------4-7-4-7-|---------------4-7-4-7-|---------------4-7-4-7-|---|
A-----4-7-4-7---5---------|---4-7-4-7---5---------|---4-7-4-7---5---------|-7-|
E---5---------------------|-5---------------------|-5---------------------|---|


G----------------------------------------------------------------------------------|
D----------------------------------------------------------------------------------|
A----------------------------------------------------------------------------------|
E---5--5-5-5---5-5---5-5-5---5-5---5-5-5---5-5---5-5-5---5-5---5-5-5---5-5---5-5-5-|


G-----------------------------------------------------------------------|
D-----------------------------------------------------------------------|
A-----------------------------------------------------------------------|
E---5-5---5-5-5---5-5---5-5-5---5-5---5-5-5---5-5---5-5-5---5-5---5-5-5-|


G---------------9-----------11-9-----------------9-9-------|-11-9---------
D-----6-9-6-9-----6-9-6-9--------12-11-9-------------12-11-|------12-11-9-
A---7------------------------------------12-11-9-----------|--------------
E----------------------------------------------------------|--------------


G------------------|---------------|-----------------------------------
D--------------8---|---------------|---------------4-7-4-7-------------
A---12-11-9-11---9-|-9-9-9-7-5-4---|---4-7-4-7---5-------------4-7-4-7-
E------------------|-------------7-|-5-----------------------5---------


G-------------------------------------|---|
D-----4-7-4-7-----------------4-7-4-7-|---|
A---5-------------4-7-4-7---5---------|-7-|
E---------------5---------------------|---|


G----------------------------------------------------------------------------------|
D----------------------------------------------------------------------------------|
A----------------------------------------------------------------------------------|
E---5--5-5-5---5-5---5-5-5---5-5---5-5-5---5-5---5-5-5---5-5---5-5-5---5-5---5-5-5-|


G-----------------------------------------------------------------------|
D-----------------------------------------------------------------------|
A-----------------------------------------------------------------------|
E---5-5---5-5-5---5-5---5-5-5---5-5---5-5-5---5-5---5-5-5---5-5---5-5-5-|


G--------------------------------|
D--------------------------------|
A---7--7-7--7-7--7-7--7-7--5-4---|
E------------------------------7-|


G---11-9-----------------9------------|-11-9------------------------|
D--------12-11-9----------------------|------12-11-9------------8---|
A----------------12-11-9---7--7-5-4---|--------------12-11-9-11---9-|
E-----------------------------------7-|-----------------------------|


G-------------------------|-----------------------------------
D-------------------------|---------------4-7-4-7-------------
A---9-9-9-7-5-4-----4-----|---4-7-4-7---5-------------4-7-4-7-
E---------------5-7---5-7-|-5-----------------------5---------


G-------------------------------------|---|
D-----4-7-4-7-----------------4-7-4-7-|---|
A---5-------------4-7-4-7---5---------|-7-|
E---------------5---------------------|---|


G----------------------------------------------------------------------------------|
D----------------------------------------------------------------------------------|
A----------------------------------------------------------------------------------|   Fade Out
E---5--5-5-5---5-5---5-5-5---5-5---5-5-5---5-5---5-5-5---5-5---5-5-5---5-5---5-5-5-|		   
AcordesyTabs.com © 2008 Acordes y Tablaturas para guitarra. Tabs and Chords for guitar. Aviso Legal - Contacto
El uso de este sitio está sujeto a la aceptación de los términos y condiciones (99 usuarios online)