tablaturas, partituras y acordes para guitarra
Busca por banda/artista:
 
y/o título de la canción:
A B C D E F G H I J K L M N O P Q R S T U V W X Y Z 0 1 2 3 4 5 6 7 8 9 / Top 100 tabs
Categorías
Usuarios
usuario:
Darse de alta
password:
Artistas más visitados
Publicidad
TOP acordes y tablaturas de Angra


Estás en: Inicio > Letra A > Acordes y tablaturas de Angra > Streets of tomorrow
Streets of tomorrow
de Angra
Puntúa este acorde/tab:      
(0.7/5)
Reportar este acorde/tab
  Añadir a tus favoritos
  Imprimir
Tune: Half-Step down

Intro.

----------|--------------|---
----------|--------------|---
----------|--------------|---
---0--0---|--0-0-0-----1-|---
                                                                              

----------------------------|-------------------------||---
----------------------------|-------------------------||---
------------1-3-1-----------|---------1-3-1-----------||---
---0-0-0-0--------0-3-5-3-0-|-0-0-0-0-------0-3-5-3-1-||---
                                                                              

Vocals.

------------------------------------------------------------------------------
------------------------------------------------------------------------------
--2-2-2-2-2-2-2-2-2-2-2---------------------0-2-2-2-2-2-2-2-2-2-2-2-----------
------------------------2-2-2-2-2-2-2-2-2-2-------------------------0-0-0-0---
                                                                              

-----------------------------------------------------------------||---
-----------------------------------------------------------------||---
-----------------------------------5-5-5-5-5-5-5-5-0-0-0-0-0-0-0-||---
-0-0-0-0-0-0-2-3-3-3-3-3-0-0-0-0-0-------------------------------||---
       
                                                                       
Bridge.

-------------------------------------------------------------11-10-999-777----
--1-1-1-1-1-1-1-0-0-0-0-0-0-0-0-0-0-0-0-0-0-1-1-1-1-1-1-1---------------------
------------------------------------------------------------------------------
------------------------------------------------------------------------------
                                                                              

-555-333-222-000--------------------------------------------------------------
-----------------333--1-1-1-1-1-1-1-0-0-0-0-0-0-0--0-------------------0------
-----------------------------------------------------3-1--1-1-1-3-3------3-1--
------------------------------------------------------------------------------
                                                                              

----------------------------------------|---
----------------------------------------|---
-1-1-1-0-------------3-3-3-3------------|---
---------3-3-3-3-3-3--------------------|---
                                                                              

Chorus.

------------------------------------------------------------------------------
------------------------------------------------------------------------------
-------------------5-5-5-5-5-5-5-5-3-3-3-3-3-3-3-3-----------------3-3-3-3-3--
---3-3-3-3-3-3-3-3---------------------------------0-0-0-0-0-0-0-0------------
                                                                              

------------------------------------------------------------------------------
------------------------------------------------------------------------------
-3-3-3-----------------3-3-3-3-3-3-3-3----------------------------------------
-------0-0-0-0-0-0-0-0-----------------3-3-3-3-3-3-3-3-1-1-1-1-1-1-1-1-1-1-1--
                                                                              

-----------|------------------------------------------------------------------
-----------|------------------------------------------------------------------
-----------|-----------------3-3-3-3-3-3-3-3-5-5-5-5-5-5-5-5-5-5-5-5-5-5-5-5--
-1-1-1-1-1-|-3-3-3-3-3-3-3-3--------------------------------------------------
                                                                              

------------------------------------------------------------------|-----------
------------------------------------------------------------------|-----------
--3-3-3-3-3-3-3-3-0-0-0-0-0-0-0-0-5-5-5-5-5-5-5-5-5-5-5-5-5-5-5-5-|-----------
------------------------------------------------------------------|-3-3-3-3---
                                                                              

------------------------------------------------------------------------------
------------------------------------------------------------------------------
---------5-5-5-5-5-5-5-5-6-6-6-6-6-6-6-6-7-7-7-7-7-7-7-7-3-3-3-3-3-3-3-3------
-3-3-3-3-----------------------------------------------------------------3-3--
                                                                              

-------------------------------------------|----------------------------------
-------------------------------------------|----------------------------------
-------------------------------------------|-----------------3-3-3-3-3-3-3-3--
-3-3-3-3-3-3-1-1-1-1-1-1-1-1-1-1-1-1-1-1-1-|-3-3-3-3-3-3-3-3------------------
                                                                              

------------------------------------------------------------------------------
------------------------------------------------------------------------------
--5-5-5-5-5-5-5-5-5-5-5-5-5-5-5-3-3-3-3-3-3-3-3-0-0-0-0-0-0-0-----------------
--------------------------------------------------------------1-1-1-1-1-1-1---
                                                                              

-------------------|---
-------------------|---
-------------------|---
-1-1-1-1-1-1-1-1-1-|---
                                                                              

Vocals II.

----------------------------------------------------------|-------------------
----------------------------------------------------------|-------------------
--5h7-----5h7-----5h7-----5h7-----0-0-0-0-0-0-------------|-5h7-----5h7-------
------0-0-----0-0-----0-0-----0-0-------------3-3-3-3-3-3-|-----0-0-----0-0---
                                                                              

-----------------------------------------------|------------------------------
-----------------------------------------------|------------------------------
-5h7-----5h7-----0-0-0-0-0-0-0-0---------------|-5h7-----5h7-----5h7-----5h7--
-----0-0-----0-0-----------------3-3-3-3-3-3-3-|-----0-0-----0-0-----0-0------
                                                                              

-------------------------------------|----------------------------------------
-------------------------------------|----------------------------------------
-----0-0-0-0-0-0-0-0-----------------|-5h7-----5h7-----5h7-----5h7-----0-0-0--
-0-0-----------------3-3-3-3-3-3-3-3-|-----0-0-----0-0-----0-0-----0-0--------
                                                                              

-------------------|---------------------------------------------------|---
-------------------|---------------------------------------------------|---
-0-0-0-------------|--------------------------------------2-------(2)--|---
-------3-3-3-3-3-3-|---0-------(0)------------(0)----------------------|---
                                                                              
Bass riff.
                                                                              
---------------------------------------0-2-0----------------------------------
----------0--1-1-------------0---0-2-4-------4-2-0-2-3-2-0---0----------------
---2--2-4--------------1-2-2---4---------------------------2---2-0-2--2-------
-----------------0-2-4--------------------------------------------------------
                                                                              

Solo. (Listen the song to know the exact number of times)

--------------------------------------------------------------2-4-----2-------
--------------------------------------------------------------------4---4-----
--2-2-2-2-2-2-2-2-2-2-2-2-2-2-2-2-2-2-2-2-2-2-2-2-2-2-2-2-2-2-----2-------2---
------------------------------------------------------------------------------
                                                                              

----2--------------------------------------------------------------------0-2-|-
------4------------------------------------------------------------0-2-4-----|-
--------2-2-2-2-2-2-2-2-2-2-2-2-2-2-2-2-2-2-2-2-2-2-2-2-2-2-2--2-4-----------|-
-----------------------------------------------------------------------------|-
                                                                              

------------------------------------------------0-------------||--
-----------2------------------1----------2--------4-2-1-4-2-0-||--
------------------------0-2-3---------------------------------||--
---0-0-0-0---0-0--0-2-3----------0-0-0-0---0-0----------------||--
                                                                              

Vocals III.

----------------------------------------------------------|-------------------
----------------------------------------------------------|-------------------
--5h7-----5h7-----5h7-----5h7-----0-0-0-0-0-0-------------|-5h7-----5h7-------
------0-0-----0-0-----0-0-----0-0-------------3-3-3-3-3-3-|-----0-0-----0-0---
                                                                              

-----------------------------------------------|------------------------------
-----------------------------------------------|------------------------------
-5h7-----5h7-----0-0-0-0-0-0-0-0---------------|-5h7-----5h7-----5h7-----5h7--
-----0-0-----0-0-----------------3-3-3-3-3-3-3-|-----0-0-----0-0-----0-0------
                                                                              

-------------------------------------|----------------------------------------
-------------------------------------|----------------------------------------
-----0-0-0-0-0-0-0-0-----------------|-5h7-----5h7-----5h7-----5h7-----0-0-0--
-0-0-----------------3-3-3-3-3-3-3-3-|-----0-0-----0-0-----0-0-----0-0--------
                                                                              

-------------------|-------------------------|---
-------------------|---2---0-----------------|---
-0-0-0-------------|-----------2---0---------|---
-------3-3-3-3-3-3-|-------------------3---1-|---


Bridge.

-------------------------------------------------------------11-10-999-777----
--1-1-1-1-1-1-1-0-0-0-0-0-0-0-0-0-0-0-0-0-0-1-1-1-1-1-1-1---------------------
------------------------------------------------------------------------------
------------------------------------------------------------------------------
                                                                              

-555-333-222-000--------------------------------------------------------------
-----------------333--1-1-1-1-1-1-1-0-0-0-0-0-0-0--0-------------------0------
-----------------------------------------------------3-1--1-1-1-3-3------3-1--
------------------------------------------------------------------------------
                                                                              

----------------------------------------|---
----------------------------------------|---
-1-1-1-0-------------3-3-3-3------------|---
---------3-3-3-3-3-3--------------------|---
          
Chorus II.
                                
------------------------------------------------------------------------------
------------------------------------------------------------------------------
-------------------5-5-5-5-5-5-5-5-3-3-3-3-3-3-3-3-----------------3-3-3-3-3--
---3-3-3-3-3-3-3-3---------------------------------0-0-0-0-0-0-0-0------------
                                                                              

-------------------------------------------------------|----------------------
-------------------------------------------------------|----------------------
-3-3-3-------------------------------------------------|-----------------3-3--
-------3-3-3-3-3-3-3-3-1-1-1-1-1-1-1-1-1-1-1-1-1-1-1-1-|-3-3-3-3-3-3-3-3------
                                                                              

------------------------------------------------------------------------------
------------------------------------------------------------------------------
-3-3-3-3-3-3-5-5-5-5-5-5-5-5-5-5-5-5-5-5-5-5-6-6-6-6-6-6-6-6-3-3-3-3-3-3-3-3--
------------------------------------------------------------------------------
                                                                              

----------------------------------|-------------------------------------------
----------------------------------|-------------------------------------------
----------------------------------|-1-1-1-1-1-1-1-1---------------------------
--1-1-1-1-1-1-1-1-1-1-1-1-1-1-1-1-|-----------------1-1-1-1-1-1-1-1-2-2-2-2---
                                                                              

------------------------------------------------------------------------------
-------------------------1-1-1-1-1-1-1-1--------------------------------------
-----------------------------------------1-1-1-1-1-1-1-1----------------------
-2-2-2-2-3-3-3-3-3-3-3-3---------------------------------4-4-4-4-4-4-4-4-4-4--
                                                                              

-------------|----------------------------------------------------------------
-------------|---------------------------------0-0-0-0-0-0-0-0-0-0-0-0-0-0-0--
-------------|-----------------3-3-3-3-3-3-3-3--------------------------------
-4-4-4-4-4-4-|-3-3-3-3-3-3-3-3------------------------------------------------
                                                                              

----------------------------------------------------|---
----------------------------------------------------|---
--3-3-3-3-3-3-3-0-0-0-0-0-0-0-0---------------------|---
---------------------------------1-----(1)-----(1)--|---
                                                                              

and then:


----------------------------|-------------------------||---
----------------------------|-------------------------||---
------------1-3-1-----------|---------1-3-1-----------||---
---0-0-0-0--------0-3-5-3-0-|-0-0-0-0-------0-3-5-3-1-||---		   
AcordesyTabs.com © 2008 Acordes y Tablaturas para guitarra. Tabs and Chords for guitar. Aviso Legal - Contacto
El uso de este sitio está sujeto a la aceptación de los términos y condiciones (22 usuarios online)