tablaturas, partituras y acordes para guitarra
Busca por banda/artista:
 
y/o título de la canción:
A B C D E F G H I J K L M N O P Q R S T U V W X Y Z 0 1 2 3 4 5 6 7 8 9 / Top 100 tabs
Categorías
Usuarios
usuario:
Darse de alta
password:
Artistas más visitados
Publicidad
TOP acordes y tablaturas de Angra


Estás en: Inicio > Letra A > Acordes y tablaturas de Angra > Wings of realyty
Wings of realyty
de Angra
Puntúa este acorde/tab:      
(0.7/5)
Reportar este acorde/tab
  Añadir a tus favoritos
  Imprimir
G----------------------------------|------------------------------------------
D----------------------------------|------------------------------------------
A----------------------------------|-7-7-7-7-7-7-7-7-7-7-7-7-7----------------
E--0--7--8--3--5---0--7--8--10--0--|-nx....-----------------------------------
   intro 

   "Day by day..."                                                              
-------------------------------------------------------------------------4----
-----------------------------------------------------------------5-4-5-7---7--
-7-7-7-7-7-7-7-7-7-7-7-7-7-7-7-7-5-5-5-5-5-5-5-5-5-5-5-5-5-5-5-5--------------
------------------------------------------------------------------------------

                                                      "And everynight..."     
-------------4-------4---------------4---------------|------------------------
-5-4-5-4-5-7---7-5-4---7-5-4-7-5-4-----7-5-4-5-4-5-7-|------------------------
-----------------------------------7-----------------|-7-7-7-7-7--------------
-----------------------------------------------------|------------------------


--------------------------------------------------------------------------|---
----------------------------------------7-9-7-6-------7-9-7-6---6-7-6-7-9-|---
-5-5-5-5-5----4-4-4-4-4---------------9---------9-7-9---------9-----------|---
--------------------------7-7-7-7-7-7-------------------------------------|---
          ...          ...                                                    

                               "Hope   the saints..."   
------------------------------|-----------------------------------------------
------------------------------|---------------7--------------------9-------11-
-7-7-7-----5-5-5--------------|------7----7-7-------9-12-----10-10----9-12----
--------------------5-5-5-5-5-|-7-10----9--------10-------12------------------
 16x       16x      32x         
                                  "Now     we walk..."                         
---------------------------------|--------------------------------------------
----9-9-12----11-14-----11-11-14-|---------------7-----------------9----------
-10--------12--------12----------|------7----7-7-------9-12-----10----9-12-12-
---------------------------------|-7-10----9--------10-------12---------------

                                                  "Breaking your heart..."     
---------------------------14-12-11-|-----------------------------------------
-11-----9-12-----11-11-12-----------|-----------------------------------------
-----10-------12--------------------|-7--7--7-7-7-7-7-7/5-/4------------9---
------------------------------------|--------------------------7-7-7--7-7-----
                                                   
                             "Tasting our live..."                             
------------------------------------------------------------------------------
-9-9-----9-9-7--5--5-5-5-5-5-4/7-------------------------------------4--------
-----7-7------------------------------4/7--5-5-5--5-5-5--5-5-5--5-7-----------
---------------------------------5/7------------------------------------------


-------------------------------------------------------------------------|----
-------------------------------------------------------------------------|----
-7--7-7-7-7-7--7-7-7--7-7--------------------------------3x-------------|----
---------------------------0--0-0-0-0-0--0-0-0--0-0-0--7-7-7-7---7-7-4-0-|----
                                                                           

------------------------------------------------------------------------------
---------------------------------9-9-9-9-9-9-9-9-9-9-9-9-9-9-9-9-10-10-10-10--
---7-7-7-7-7-7-7-7-7-7-7-7-7-7-7----------------------------------------------
-5----------------------------------------------------------------------------
 CHORUS                                                                       

-10 10-10-10---------------7h9-9-9-9-9-9-9-9-7-7-7-7-7-7--|------------------
-------------7-7-7-7-9-9-9---------------------------------|------------------
-----------------------------------------------------------|-0-0-0-0-0-0------
-----------------------------------------------------------|------------------
                                                                         ...  

-------------------------------------------------------------------------|----
-------------------------------------------------------------------------|----
-------------------------------------------------------------------------|----
-7-7-7-7-----h8--8-8-8--8-8--10-10-10-10-10---10-10---12-12-12-12-12-----|----
         ....                                                       ....      


------------------------------------------------------------------------------
------------------------------------------------------------------------------
---------------------------------------------------------7-7-7-7-9-9-9-9h10---
-		   
AcordesyTabs.com © 2008 Acordes y Tablaturas para guitarra. Tabs and Chords for guitar. Aviso Legal - Contacto
El uso de este sitio está sujeto a la aceptación de los términos y condiciones (23 usuarios online)