tablaturas, partituras y acordes para guitarra
Busca por banda/artista:
 
y/o título de la canción:
A B C D E F G H I J K L M N O P Q R S T U V W X Y Z 0 1 2 3 4 5 6 7 8 9 / Top 100 tabs
Categorías
Usuarios
usuario:
Darse de alta
password:
Artistas más visitados
Publicidad
TOP acordes y tablaturas de Blur


Estás en: Inicio > Letra B > Acordes y tablaturas de Blur > Out of time
Out of time
de Blur
Puntúa este acorde/tab:      
(0.5/5)
Reportar este acorde/tab
  Añadir a tus favoritos
  Imprimir
Intro 
G|------------------------------------------------------------------------|
D|------------------------------------------------------------------------|
A|---------1-------------1------------1-----3-----1-------------1---------|
E|-12-0-----1---(3)-0-----1--1-3-0-----1-----0-----1---(3)-0-----1---(3)-|

G|------------------------------------------------------------------------|
D|------------------------------------------2---/7-----5-----7------------|
A|-----1---3---------1-----------1----1---3---------8----7-----8----8-8/7-|
E|-0-----1---(1)-0-----1---3-0-----1----1-------------------------8-------|

G|-------------------------|
D|-7------------/7---------|
A|---8------7------8--10-|
E|-------8-----------------|

Verse 1 (starting from “where’s the love...”)
G|---------------------------------------------------------7-|
D|------------5----5-5---5/--------------------5---5--5--9---|
A|-8----8/7------------5----7---8----8/7---8-----------------|
E|----8----------------------------8-------------------------|

G|-------------------------------------------------------------7-|
D|----------------5---5--5-5-5---------------------5----5-5--9---|
A|-7---8----8/7---------------5/7---8----8/7---8-----------------|
E|--------8----------------------------8-------------------------|

G|-----------------------------------------------------------|
D|-------------------------------7---6---5---3------5----5---|
A|-7-7--8-8--7-7--8-8--7-7--8-8----------------------------5-|
E|-----------------------------------------------------------|

Verse 2 (feel the sunshine...)
G|------------------------------------------------------|
D|---------------5----5-5-------------------5--5--5-5-5-|
A|-7---8---8---------5--7---8---7---8---8----------5--|
E|------------------------------------------------------|

G|----------------------------------------------------------------|
D|--------------------------------7---6---5---3------5--5--5--5-5-|
A|-7-7--88-8--7-7--8-8--7-7--8-8----------------------------------|
E|----------------------------------------------------------------|

Solo Guitar Part
G|----------------------------------------------------------------------------|
D|----------------------------------------------------------------------------|
A|-----1----------1-----------1------------1-----3-----1----------1-------3---|
E|-0-----1----0-----1---3-0-----1--1-3-0-----1-----0-----1----0-----1-1-1---0-|

G|-----------------------|
D|-/7-----5---5-5--5-5-5-|
A|-----8--------------5--|
E|-----------------------|

Outro (and you...)
G|----------------------------------------------------------------------------|
D|-------------------------------7---6---5---3---7---6---5---3------5--5--5-5-|
A|-7-7--8-8--7-7--8-8--7-7--8-8-----------------------------------------------|
E|----------------------------------------------------------------------------|

G|-------------------------------|
D|-3------5--5--5-5---3----------|
A|---------------------------3---|
E|-------------------------------|		   
AcordesyTabs.com © 2008 Acordes y Tablaturas para guitarra. Tabs and Chords for guitar. Aviso Legal - Contacto
El uso de este sitio está sujeto a la aceptación de los términos y condiciones (33 usuarios online)