tablaturas, partituras y acordes para guitarra
Busca por banda/artista:
 
y/o título de la canción:
A B C D E F G H I J K L M N O P Q R S T U V W X Y Z 0 1 2 3 4 5 6 7 8 9 / Top 100 tabs
Categorías
Usuarios
usuario:
Darse de alta
password:
Artistas más visitados
Publicidad
TOP acordes y tablaturas de Creed


Estás en: Inicio > Letra C > Acordes y tablaturas de Creed > My sacrifice (acústico)
My sacrifice (acústico)
de Creed
Puntúa este acorde/tab:      
(0.5/5)
Reportar este acorde/tab
  Añadir a tus favoritos
  Imprimir
-Introdução:

1ª parte:

e | ------------------------------------------------
B | ---------3---------------------12---------12----
G | ---6-------6---6------------14---------14-------
D | -----4-------4/-------------------12---------12-
A | -2-----2------------0----10---------------------
E | ------------------------------------------------
                                                      
   D         D7M
e | -2-2-2-2---2-2-2-------2-2---2-2-2---0---0--------
B | -3-3-3-3p2-2-2-2h3-----3-3p2-2-2-2/7-7---7h8------
G | -2-2-2-2---2-2-2-------2-2---2-2-2/7-7---7------6-
D | -0-0-0-0---0-0-0-------0-0---0-0-0---0---0------4-
A | ------------------------------------------------2-
E | --------------------------------------------------
                                                      
e | ------------------------------------------------
B | ---------3---------------------12---------12----
G | ---6-------6---6------------14---------14-------
D | -----4-------4/-------------------12---------12-
A | -2-----2------------0----10---------------------
E | ------------------------------------------------

2ª parte:
 
   D   D7M
e | -2---2-2-2----2--2--2--2—--—-
B | -3p2-2-2-2h3--3--2--3--2h3p2—
G | -2---2-2-2----2--2--2--2-----  (2x)
D | -0---0-0-0----0--0--0--0-----
A | -----------------------------
E | -----------------------------
                                              
   Bm B9  Bm       G9
e | -2--2---2-2-2-2--5--5-5-5-5-5-5-5-
B | -3--2---3-3-3-3--3--3-3-3-3-3-3-3-
G | -4--4---4-4-4-4--4--4-4-4-4-4-4-4-
D | -4--4---4-4-4-4--3--3-3-3-3-3-3-3-
A | -2--2---2-2-4-2--5--5-5-5-5-5-5-5-
E | -----------------3--3-3-3-3-3-3-3-

Continue tocando a 2ª parte da intro:

 Hello my friend we meet again
 It’s been a while where should
 We begin  Feels like forever
 Within my heart are memories
 Of perfect love that you gave to me
 Oh I remember


Refrão:
               D      D4           A7+          Bm  B9    Bm  G9    F
 When you are with me        I’m free       I’m careless  I believe
               D      D4             A7M                Bm B9 Bm    G9   F
 Above all the others        we’ll fly      this brings tears to my eyes
          D
 My sacrifice


Repete a 2ª parte da intro e continue com a música:

 We’ve seen our share of ups and downs
 Oh, how quickly life can turn around
 In an instant
 It feels so good to reunite
 Within yourself and within your mind
 Let’s find peace there


Repita o Refrão depois fique alternando entre D e D7M

                                                                 C#m6   D
 I just want to say hello again... I just want to say hello again...

Refrão 2x

 I just want to say hello again... I just want to say hello again...


D  D4  D  A7M  Bm  B9  Bm  G9    		   
AcordesyTabs.com © 2008 Acordes y Tablaturas para guitarra. Tabs and Chords for guitar. Aviso Legal - Contacto
El uso de este sitio está sujeto a la aceptación de los términos y condiciones (23 usuarios online)