tablaturas, partituras y acordes para guitarra
Busca por banda/artista:
 
y/o título de la canción:
A B C D E F G H I J K L M N O P Q R S T U V W X Y Z 0 1 2 3 4 5 6 7 8 9 / Top 100 tabs
Categorías
Usuarios
usuario:
Darse de alta
password:
Artistas más visitados
Publicidad
TOP acordes y tablaturas de Bon jovi


Estás en: Inicio > Letra B > Acordes y tablaturas de Bon jovi > I'd die for you
I'd die for you
de Bon jovi
Puntúa este acorde/tab:      
(0.2/5)
Reportar este acorde/tab
  Añadir a tus favoritos
  Imprimir
Intro                                                                       ____
 |2x                                  |2x                                  |1st
G|-----r----|----r-|-------|----------|------------------|-----------------|---
D|*----e----|----e-|-------|---------*|*-----------------|-----------------|---
A|*----s----|----s-|-------|-3-3-2---*|*-------2-2-2-3-3-|-----------------|---
E|--5--t--5-|-1--t-|-0-----|----------|--5-5-5-----------|-1-1-1-3-3-3-5-5-|-3-
                                     ____
                                    |2nd                        |
---------------|--------------------|-----------------|---------|
---------------|-------------------*|-----------------|---------|
-----------2-2-|---------------2-2-*|-----------------|---3-3-2-|
-3-3-5-5-5-----|-0-0-0-0-3-3-3------|-3-3-3-3-3-3-3-3-|-3-------|

Verse 1
G|-----------------|-----------------|-----------------|-----------------|-----
D|-----------------|-----------------|-----------------|-----------------|-----
A|-----------------|-----------------|-----------------|-----------------|-----
E|-5-5-------------|-1---------------|-3---------------|-0---------------|-5-5-

                                                                  |2x
------------|-----------------|-----------------|-----------------|------------
---7--------|-----------------|------5----------|-----------------|*-----------
-7----------|-----------------|----5------------|-----------------|*-----------
------------|-1---------------|-3---------------|-0---------------|--1-1-1-1-1-
                          ____                                 ____
                         |1st                                 |2nd
-------|-----------------|-----------------|------------------|---
-------|-----------------|-----------------|-----------------*|---
-------|-----------------|-----------------|-3-3-3-----------*|---
-1-1-1-|-5-5-5-3-3-3-3-3-|-1-1-1-1-1-1-1-1-|-------3-3-3-3-3--|-1-

--------------|-----------------|
--------------|-----------------|
--------------|-----------------|
--------------|-0---------------|

Chorus                                                   ____               ____
 |2x                                                    |1st               |2nd
G|------------------|-----------------|-----------------|------------------|---
D|*-----------------|-----------------|-----------------|-----------------*|---
A|*-------2-2-2-3-3-|-----------------|-------------2-2-|-------------2-2-*|---
E|--5-5-5-----------|-1-1-1-3-3-3-5-5-|-3-3-3-5-5-5-----|-0-0-0-3-3-3------|-3-

                         |
---------------|---------|
---------------|---------|
---------------|---3-3-2-|
-3-3-3-3-3-3-3-|-3-------|

Verse 2
G|-----------------|-----------------|-----------------|-----------------|-----
D|-------7---------|-------3---------|-------5---------|-------2---------|-----
A|-----7-----------|-----3-----------|-----5-----------|-----2-----------|-----
E|-5-5-------------|-1-1-------------|-3-3-------------|-0-0-------------|-5-5-

-----------------------|---------------------------|--------------------------|-
---7-----7-------7---7-|-------3-----3-------3---3-|------5-----5-------5---5-|-
-7-----7-------7---7---|-----3-----3-------3---3---|----5-----5-------5---5---|-
-----5-----5-5---------|-1-1-----1-----1-1---------|--3-----3-----3-3---------|-
                                       ____                                 ____
 |2x                                  |1nd                                 |2st
-|------------------|-----------------|-----------------|------------------|---
-|*-----------------|-----------------|-----------------|-----------------*|---
-|*-----------------|-----------------|-----------------|-3-3-3-3---------*|---
-|--1-1-1-1-1-1-1-1-|-5-5-5-5-3-3-3-3-|-1-1-1-1-1-1-1-1-|---------3-3-3-3--|-1-

                                |
--------------|-----------------|
--------------|-----------------|
--------------|-----------------|
--------------|-0---------------|

Chorus

Guitar Solo                                              __________         ____
 |4x                                                    |1st & 3rd         |2nd
G|------------------|-----------------|-----------------|------------------|---
D|*-----------------|-----------------|-----------------|-----------------*|---
A|*-------2-2-2-3-3-|-----------------|-------------2-2-|-------------2-2-*|---
E|--5-5-5-----------|-1-1-1-3-3-3-5-5-|-3-3-3-5-5-5-----|-0-0-0-3-3-3------|-3-
                        ____
                       |4th                                |
-----------------------|-----------------|-----------------|
-----------------------|-----------------|-----------------|
-----------------3-3-2-|-----------------|-2-------3-------|
-3-3-3-3-3-3-3-3-------|-3-------5-------|-----------------|

Bridge                                 ____                                 ____
 |2x                                  |1st                                 |2nd
G|------------------|-----------------|-----------------|------------------|---
D|*-----------------|-----------------|-----------------|-----------------*|---
A|*-----------------|-----------------|-----------------|-----------------*|---
E|--5-5-5-5---------|-1---------------|-3-3-3-3---------|-0----------------|-3-

                                 |
-----------------|---------------|
-----------------|---------------|
-----------------|-3-3-2-3-2-----|
-3-3-3-3-3-3-3-3-|-----------5-3-|

Chorus + Guitar Solo

Outro
G|-----------------|
D|-----------------|
A|-----------------|
E|-5-5-5-5~--------|

...another one tabbed by ridopoco...		   
AcordesyTabs.com © 2008 Acordes y Tablaturas para guitarra. Tabs and Chords for guitar. Aviso Legal - Contacto
El uso de este sitio está sujeto a la aceptación de los términos y condiciones (16 usuarios online)