tablaturas, partituras y acordes para guitarra
Busca por banda/artista:
 
y/o título de la canción:
A B C D E F G H I J K L M N O P Q R S T U V W X Y Z 0 1 2 3 4 5 6 7 8 9 / Top 100 tabs
Categorías
Usuarios
usuario:
Darse de alta
password:
Artistas más visitados
Publicidad
TOP acordes y tablaturas de Bon jovi


Estás en: Inicio > Letra B > Acordes y tablaturas de Bon jovi > It's my life
It's my life
de Bon jovi
Puntúa este acorde/tab:      
(0.6/5)
Reportar este acorde/tab
  Añadir a tus favoritos
  Imprimir
Normal Tuning - E A D G


"Lets sing a song for the broken hearted"   then the bass kicks in....

Intro
G|---------------------------------------------------------------------------
D|---------------------------------------------------------------------------
A|----1-333333--------1-33333333---------1-3333333r---3333333333------------
E|-1-3-------------1-3----------------1-3------------------------11111111111-

Chorus x2
G|-------------------------------------------------------------------------------
D|-------------------------------------------------------------------------------
A|---3-3-3-3-3-3-3-3------------------6-6-6-6-6-6-6-6-----------------------
E|--------------------4-4-4-4-4-4-4-4------------------6-6-6-6-6-6-6-6-

G|-------------------------------------------------------------------------------
D|-------------------------------------------------------------------------------
A|--3-3-3-3-3-3-3-3-------------------------------------------2-3----
E|------------------4-4-4-4-4-4-4-4-6-6-6-6-6-6-6-6-6-6-6-6--6-------
 
Small Break then back to Intro
G|------------------------------------------------------------------------------
D|------------------------------------------------------------------------------
A|----1-333333--------1-33333333----------1-3333333r--3333333333-------------
E|-1-3-------------1-3-----------------1-3-----------------------11111111111-

Chorus x2
G|--------------------------------------------------------------------------------
D|--------------------------------------------------------------------------------
A|---3-3-3-3-3-3-3-3-----------------6-6-6-6-6-6-6-6-----------------------
E|-------------------4-4-4-4-4-4-4-4-----------------6-6-6-6-6-6-6-6--

G|------------------------------------------------------------------------------
D|------------------------------------------------------------------------------
A|---3-3-3-3-3-3-3-3-------------------------------------------2-3------------
E|-------------------4-4-4-4-4-4-4-4-6-6-6-6-6-6-6-6-6-6-6-6--6---------------
 
Bridge
G|-----------------------------------------------------------------------------
D|-----------------------------------------------------------------------------
A|-------------------------------------------3-3-3-3-3-3-3-3-3-3-----------------3r
E|--4-4-4-4-4-4-4-4-4--6-6-6-6-6-6-6-6-6-6-6--------------------1-1-1-1-1-1-1-1---

Chorus x4
G|----------------------------------------------------------------------------------
D|----------------------------------------------------------------------------------
A|---3-3-3-3-3-3-3-3-----------------------6-6-6-6-6-6-6-6-----------------------
E|-------------------------4-4-4-4-4-4-4-4-----------------------6-6-6-6-6-6-6-6--

G|------------------------------------------------------------------------------
D|------------------------------------------------------------------------------
A|---3-3-3-3-3-3-3-3-------------------------------------------2-3----
E|-------------------4-4-4-4-4-4-4-4-6-6-6-6-6-6-6-6-6-6-6-6--6-------


That's pretty much it,  the intro is the hard part,have to hit the first 3 notes fast,  overall an easy song.		   
AcordesyTabs.com © 2008 Acordes y Tablaturas para guitarra. Tabs and Chords for guitar. Aviso Legal - Contacto
El uso de este sitio está sujeto a la aceptación de los términos y condiciones (28 usuarios online)