tablaturas, partituras y acordes para guitarra
Busca por banda/artista:
 
y/o título de la canción:
A B C D E F G H I J K L M N O P Q R S T U V W X Y Z 0 1 2 3 4 5 6 7 8 9 / Top 100 tabs
Categorías
Usuarios
usuario:
Darse de alta
password:
Artistas más visitados
Publicidad
TOP acordes y tablaturas de Bryan adams


Estás en: Inicio > Letra B > Acordes y tablaturas de Bryan adams > I do it for you
I do it for you
de Bryan adams
Puntúa este acorde/tab:      
(0.6/5)
Reportar este acorde/tab
  Añadir a tus favoritos
  Imprimir
						x2
G-----------|--------|--------|--------------|--------|-------------
D-----------|--------|--------|--------------|--------|-------------
A-11--4-4-|-4--4-4-|--------|--------------|-4--4-4-|-24-------2/4
E-----------|--------|-2--2-2-|-2/4--4-4--4-4|--------|----2--2-2---
                           x2
G-----------|---------------------|-----------|-------------|----------
D-----------|---------------------|-----------|-------------|----------
A-----------|--4h6-6--6-6--6--6-6-|-6-4---4-4-|4h6-4--------|-1/4--4-4-
E-4-4-44--4-|---------------------|-----------|------4--4-4-|---------- 
 
G------------|--|---------|---------------|-------------|-------------
D------------|--|---------|---------------|-------------|-------------
A-04--4-4--4||/|2--2-2/5-|---------------|-2--2-2--225-|-------------
E------------|--|---------|-0--0-0--0202--|-------------|-2--2-2--2422
                                                         x2         x2
G--------|----------------------|----------------|-|--------|---------
D--------|----------------------|----------------|-|--------|---------
A-4--4-4-|-4546---666-----4--66-|6-4-66--6-------|-|--------|-2/4--4-4
E--------|------4----4--7-------|.---------4/-16-||-2--2-2-|---------
						     (solo)                                             								
G-------------|---------|---------------|-----------------|-----------
D-------------|---------|---------------|-----------------|-----------
A-4044--------|-4-------|-2h44-2/4--4-4-|-224--224---4444-|-6--6-6----
E-----2--2-2--|--2--2-2-|---------------|-----------------|-----------
 
G----------|------------|------------------|------------|---------
D----------|------------|------------------|------------|---------
A-4-6-4-6--|------------|-6--44-6--4-6-6-6-|------------|-4--4-4/6
E----------|-4--4-4-4-4-|------------------|-4--4-4-4-4-|---------
 
G------------|-------|-------|-r-|--------|----------|-------------
D------------|-------|-------|-r-|--------|----------|-------------
A--------------------|-44----|-r-|--------|-4--------|-2/4--2h4-4-4
E-4--4-4--444--2-2-|2---2-2|-r-|--2-2-|---2--2-2-|--------------
				    (solo)
G---------------|--------|----------|----------------------------|  |
D-2/4--2h4-4444-|--------|----------|----------------------------|  |repete
A---------------|--------|-4--------|-2/4--2h4-4-4--2/4--2h4-4444|/|solo
E---------------|-2--2-2-|---2--2-2-|----------------------------|  |x6		   
AcordesyTabs.com © 2008 Acordes y Tablaturas para guitarra. Tabs and Chords for guitar. Aviso Legal - Contacto
El uso de este sitio está sujeto a la aceptación de los términos y condiciones (30 usuarios online)