tablaturas, partituras y acordes para guitarra
Busca por banda/artista:
 
y/o título de la canción:
A B C D E F G H I J K L M N O P Q R S T U V W X Y Z 0 1 2 3 4 5 6 7 8 9 / Top 100 tabs
Categorías
Usuarios
usuario:
Darse de alta
password:
Artistas más visitados
Publicidad
TOP acordes y tablaturas de Counting crows


Mr. jones
de Counting crows
Puntúa este acorde/tab:      
(0.4/5)
Reportar este acorde/tab
  Añadir a tus favoritos
  Imprimir
------------------|------------------|--------------------------|
------------------|------------------|--------------------------|
------------------|------------------|--------------------------|
------------------|------------------|--3--3--3--3--3--3--3--3--|


                                                                      
--------------------------|---------------------|--------------------|
--------------------------|---------------------|--------------------|
--------------------------|-------0-------------|--------------------|
--3--3--3--3--3--3--3--3--|--3-----------3------|--1------0----------|


                                                                  
-------------------|-----------------------|---------------------|
-------------------|-----------------------|---------------------|
-------------------|-----------------------|-------0-------------|
--------------3----|----3------3--3--3--3--|--3-----------3------|


                                                                     
--------------------|----------------------|------------------------|
--------------------|----------------------|------------------------|
--------------------|----------------------|------------------------|
--1------0----------|--3------3--3------3--|--3------3--3--3--3--3--|


                                                               
---------------------|--------------------|-------------------|
---------------------|--------------------|-------------------|
-------0-------------|--------------------|-------------------|
--3-----------3------|--1------0----------|--------------3----|


                                                                   
-----------------------|---------------------|--------------------|
-----------------------|---------------------|--------------------|
-----------------------|-------0-------------|--------------------|
----3------3--3--3--3--|--3-----------3------|--1------0----------|


                                                                      
----------------------|------------------------|---------------------|
----------------------|------------------------|---------------------|
----------------------|------------------------|-------0-------------|
--3------3--3------3--|--3------3--3--3--3--3--|--3-----------3------|


                                                                 
--------------------|-------------------|-----------------------|
--------------------|-------------------|-----------------------|
--------------------|-------------------|-----------------------|
--1------0----------|--------------3----|----3------3--3--3--3--|


                                                                  
---------------------|--------------------|----------------------|
---------------------|--------------------|----------------------|
-------0-------------|--------------------|----------------------|
--3-----------3------|--1------0----------|--3------3--3------3--|


                                                                       
------------------------|-----------------------|---------------------|
------------------------|--------------2--------|---------------------|
------------------------|--0--------3-----3--0--|-------0-------------|
--3------3--3--3--3--3--|-----------------------|--1-------------1----|


                                                                    
---------------------|---------------------|-----------------------|
---------------------|---------------------|--------------2--------|
---------------------|---------------------|--0--------3-----3--0--|
--3----3--------1----|--3----3--------0----|-----------------------|


                                                                  
---------------------|---------------------|---------------------|
---------------------|---------------------|---------------------|
-------0-------------|---------------------|---------------------|
--1-------------1----|--3----3--------1----|--3----3--------0----|


                                                                    
-----------------------|---------------------|---------------------|
--------------2--------|---------------------|---------------------|
--0--------3-----3--0--|-------0-------------|---------------------|
-----------------------|--1-------------1----|--3----3--------1----|


                                                                    
---------------------|-----------------------|---------------------|
---------------------|--------------2--------|---------------------|
---------------------|--0--------3-----3--0--|-------0-------------|
--3----3--------0----|-----------------------|--1-------------1----|


                                                                  
---------------------|---------------------|---------------------|
---------------------|---------------------|---------------------|
---------------------|---------------------|-------0-------------|
--3----3--------1----|--3----3--------0----|--3-----------3------|


                                                                 
--------------------|-------------------|-----------------------|
--------------------|-------------------|-----------------------|
--------------------|-------------------|-----------------------|
--1------0----------|--------------3----|----3------3--3--3--3--|


                                                                  
---------------------|--------------------|----------------------|
---------------------|--------------------|----------------------|
-------0-------------|--------------------|----------------------|
--3-----------3------|--1------0----------|--3------3--3------3--|


                                                                    
------------------------|---------------------|--------------------|
------------------------|---------------------|--------------------|
------------------------|-------0-------------|--------------------|
--3------3--3--3--3--3--|--3-----------3------|--1------0----------|


                                                                  
-------------------|-----------------------|---------------------|
-------------------|-----------------------|---------------------|
-------------------|-----------------------|-------0-------------|
--------------3----|----3------3--3--3--3--|--3-----------3------|


                                                                     
--------------------|----------------------|------------------------|
--------------------|----------------------|------------------------|
--------------------|----------------------|------------------------|
--1------0----------|--3------3--3------3--|--3------3--3--3--3--3--|


                                                                    
-----------------------|---------------------|---------------------|
--------------2--------|---------------------|---------------------|
--0--------3-----3--0--|-------0-------------|---------------------|
-----------------------|--1-------------1----|--3----3--------1----|


                                                                    
---------------------|-----------------------|---------------------|
---------------------|--------------2--------|---------------------|
---------------------|--0--------3-----3--0--|-------0-------------|
--3----3--------0----|-----------------------|--1-------------1----|


                                                                    
---------------------|---------------------|-----------------------|
---------------------|---------------------|--------------2--------|
---------------------|---------------------|--0--------3-----3--0--|
--3----3--------1----|--3----3--------0----|-----------------------|


                                                                  
---------------------|---------------------|---------------------|
---------------------|---------------------|---------------------|
-------0-------------|---------------------|---------------------|
--1-------------1----|--3----3--------1----|--3----3--------0----|


                                                                    
-----------------------|---------------------|---------------------|
--------------2--------|---------------------|---------------------|
--0--------3-----3--0--|-------0-------------|---------------------|
-----------------------|--1-------------1----|--3----3--------1----|


                                                               
---------------------|--------------------|-------------------|
---------------------|--------------------|-------------------|
---------------------|--0----0------------|--------------0----|
--3----3--------0----|--------------------|-------------------|


                                                              
--------------------|-------------------|--------------------|
--------------------|-------------------|--------------------|
--------------------|-------------------|--0----0------------|
--1----1------------|--------------1----|--------------------|


                                                             
-------------------|--------------------|-------------------|
-------------------|--------------------|-------------------|
--------------0----|--------------------|-------------------|
-------------------|--3----3------------|--------------3----|


                                                              
--------------------|-------------------|--------------------|
--------------------|-------------------|--------------------|
--0----0------------|--------------0----|--------------------|
--------------------|-------------------|--1----1------------|


                                                             
-------------------|--------------------|-------------------|
-------------------|--------------------|-------------------|
-------------------|--0----0------------|--------------0----|
--------------1----|--------------------|-------------------|


                                                              
--------------------|-------------------|--------------------|
--------------------|-------------------|--------------------|
--------------------|-------------------|--0----0------------|
--3----3------------|--------------3----|--------------------|


                                                             
-------------------|--------------------|-------------------|
-------------------|--------------------|-------------------|
--------------0----|--------------------|-------------------|
-------------------|--1----1------------|--------------1----|


                                                                    
--------------------|-------------------|--------------------------|
--------------------|-------------------|--------------------------|
--0----0------------|--------------0----|--------------------------|
--------------------|-------------------|--3--3--3--3--3--3--3--3--|


                                                                         
--------------------------|-----------------------|---------------------|
--------------------------|--------------2--------|---------------------|
--------------------------|--0--------3-----3--0--|-------0-------------|
--3--3--3--3--3--3--3--3--|-----------------------|--1-------------1----|


                                                                    
---------------------|---------------------|-----------------------|
---------------------|---------------------|--------------2--------|
---------------------|---------------------|--0--------3-----3--0--|
--3----3--------1----|--3----3--------0----|-----------------------|


                                                                  
---------------------|---------------------|---------------------|
---------------------|---------------------|---------------------|
-------0-------------|---------------------|---------------------|
--1-------------1----|--3----3--------1----|--3----3--------0----|


                                                                    
-----------------------|---------------------|---------------------|
--------------2--------|---------------------|---------------------|
--0--------3-----3--0--|-------0-------------|---------------------|
-----------------------|--1-------------1----|--3----3--------1----|


                                                                    
---------------------|-----------------------|---------------------|
---------------------|--------------2--------|---------------------|
---------------------|--0--------3-----3--0--|-------0-------------|
--3----3--------0----|-----------------------|--1-------------1----|


                                                                    
---------------------|---------------------|-----------------------|
---------------------|---------------------|--------------2--------|
---------------------|---------------------|--0--------3-----3--0--|
--3----3--------1----|--3----3--------0----|-----------------------|


                                                                  
---------------------|---------------------|---------------------|
---------------------|---------------------|---------------------|
-------0-------------|---------------------|---------------------|
--1-------------1----|--3----3--------1----|--3----3--------0----|


                                                                    
-----------------------|---------------------|---------------------|
--------------2--------|---------------------|---------------------|
--0--------3-----3--0--|-------0-------------|---------------------|
-----------------------|--1-------------1----|--3----3--------1----|


                                                                    
---------------------|-----------------------|---------------------|
---------------------|--------------2--------|---------------------|
---------------------|--0--------3-----3--0--|-------0-------------|
--3----3--------0----|-----------------------|--1-------------1----|


                                                                    
---------------------|---------------------|-----------------------|
---------------------|---------------------|--------------2--------|
---------------------|---------------------|--0--------3-----3--0--|
--3----3--------1----|--3----3--------0----|-----------------------|


                                                                  
---------------------|---------------------|---------------------|
---------------------|---------------------|---------------------|
-------0-------------|---------------------|---------------------|
--1-------------1----|--3----3--------1----|--3----3--------0----|


                                                                  
-----------------------|---------------------|-------------------|
--------------2--------|---------------------|-------------------|
--0--------3-----3--0--|-------0-------------|-------------------|
-----------------------|--1-------------1----|--3----------------|		   
AcordesyTabs.com © 2008 Acordes y Tablaturas para guitarra. Tabs and Chords for guitar. Aviso Legal - Contacto
El uso de este sitio está sujeto a la aceptación de los términos y condiciones (11 usuarios online)