tablaturas, partituras y acordes para guitarra
Busca por banda/artista:
 
y/o título de la canción:
A B C D E F G H I J K L M N O P Q R S T U V W X Y Z 0 1 2 3 4 5 6 7 8 9 / Top 100 tabs
Categorías
Usuarios
usuario:
Darse de alta
password:
Artistas más visitados
Publicidad
TOP acordes y tablaturas de Oasis
:: Lyla - Oasis


Estás en: Inicio > Letra O > Acordes y tablaturas de Oasis > I can see a liar
I can see a liar
de Oasis
Puntúa este acorde/tab:      
(0.6/5)
Reportar este acorde/tab
  Añadir a tus favoritos
  Imprimir
Tom :D
Intro: (Phrase 1 x4, then Phrase 2 x3)
Phrase 1
---------------------------3-
3-3-3-3--3----3-3-3-3--3---3-
2-2-2-0--2----2-2-2-0--2---0-
0-0-0-0--0----0-0-0-0--0---0-
0-0-0-3--0----0-0-0-3--0---2-
---------------------------3-
Phrase 2
A-5-5-3-3-3-5---
E-3-3-1-0-1-3---
VERSE 1
D        D/C#   
Baby the time is right
   D/C                 D/B
To tell it all like it is
D              D/C#
And now that I feel alright
        D/C                   D/B
There's nothing that can't be kissed
D             D/C#       
The name of a lonely soul
   D/C               D/B
Is scratched into my brain
D                 D/C#
He thought he was king creole
  D/C
Until he found out
D/B
Till he found out
Bb 
He sits upon a throne
C        D        Bb                 
He lives a sleazy lie
                   A     C
But he's all alone again again

CHORUS

(Phrase 1)     (Phrase 2)

I can see a liar

(Phrase 1)     (Phrase 2)

Sitting by the fire

(Phrase 1)     (Phrase 2)

Trouble in his heart

(Phrase 1)     

Laughing at the thought

(Phrase 2)

Coming as he goes

(Phrase 2)

Into overdose

(Phrase 2)
                G
I wonder what he feels to me

VERSE 2
D        D/C#   
Baby the time is right
   D/C                 D/B
To tell it all like it is
D              D/C#
And now that I feel alright
        D/C                   D/B
There's nothing that can't be kissed
Bb 
He sits upon a throne
C        D        Bb                 
He lives a sleazy lie
                   A     C
But he's all alone again again
(REPEAT CHORUS)
SOLO
Bb              F               G     
         H               H               H               
-------------------------------------------------------6--8-(10)-----
8(9)8--6-8------8(9)8--6-8------8(9)8--6-8-----8(9)8-----------------
------------7---------------7---------------7------------------------
---------------------------------------------------------------------
---------------------------------------------------------------------
---------------------------------------------------------------------
Bb             F                 A           C
            H
----------------------------------------------
8(9)8--6-8------8(9)8--6-8--------------------
------------7---------------7--5-7-7-7-7-7-7--
----------------------------------------------
----------------------------------------------
----------------------------------------------
OUTRO CHORUS
(Phrase 1)     (Phrase 2)
Baby you're a liar
(Phrase 1)     (Phrase 2)
Sitting by the fire
(Phrase 1)     (Phrase 2)
Trouble in your heart
(Phrase 1)     (Phrase 2)
You're laughing at the thought
(Phrase 1)     (Phrase 2)
Yeah baby you're a liar
(Phrase 1)     (Phrase 2)
Sitting by the fire
(Phrase 1)     (Phrase 2)
Trouble in your heart
(Phrase 1)     (Phrase 2)
You're laughing at the thought
(Phrase 2)
Coming as you goes
(Phrase 2)
Into overdose
(Phrase 2)                 G
I wonder what you think of me
End on Phrase 1 		   
AcordesyTabs.com © 2008 Acordes y Tablaturas para guitarra. Tabs and Chords for guitar. Aviso Legal - Contacto
El uso de este sitio está sujeto a la aceptación de los términos y condiciones (19 usuarios online)