tablaturas, partituras y acordes para guitarra
Busca por banda/artista:
 
y/o título de la canción:
A B C D E F G H I J K L M N O P Q R S T U V W X Y Z 0 1 2 3 4 5 6 7 8 9 / Top 100 tabs
Categorías
Usuarios
usuario:
Darse de alta
password:
Artistas más visitados
Publicidad
TOP acordes y tablaturas de Econoline crush


Make it right
de Econoline crush
Puntúa este acorde/tab:      
(0.8/5)
Reportar este acorde/tab
  Añadir a tus favoritos
  Imprimir

song: Make It Right
band: Econoline Crush 
album: Brand New History 
transcribed by: Jon "Mr.Big" Makokis 
email corrections or comments to: metallikop25@hotmail.com 
 
intro:x2 
G|---------------------------------------------------------| 
D|---------------------------------------------------------| 
A|-----------------7--------------------------7------------| 
E|--0---7-10-7-7------7-10-7-7---7-10-7-7------7-10-7-7--| 
 
verse:x8 
G|--------------| 
D|--------------| 
A|--------------| 
E|--0---/7-----| 
 
pre-chourus:x2 
G|--------------------------------------------| 
D|--------------------------------------------| 
A|--------------------------------------------| 
E|--3h5-3h5-3h5-3h5-6-6-3h5-3h5-3h5-3h5--6-3--| 
 
chorus:x2 
G|----------------------------------------------------------| 
D|----------------------------------------------------------| 
A|-----------------7--------------------------7-------------| 
E|--0---7-10-7-7------7-10-7-7---7-10-7-7------7-10-7-7--| 
 
verse:x8 
 
pre-chourus:x2 
 
chorus:x2 
 
solo:x4 
G|-------------------------------------------| 
D|-------------------------------------------| 
A|----5---5---5---5---5----------------------| 
E|--0---0---0---0---0---0-3-0-3-0-5-0-5-0-5--| 

pre-chourus:x1 
 
pre-chourus(b):x1 
G|-----------------------------------| 
D|-----------------------------------| 
A|-----------------------------------| 
E|--3h5-3h5-3h5-3h5-6-6-3h5-3h5-3h5--| 
 
chorus(b):x2
G|-------------------------------------------------------------------| 
D|---------------------------------------------------------------7--| 
A|-----------------7--------------------------7--------------7-9-----|
E|--0---7-10-7-7------7-10-7-7---7-10-7-7------7-10-7-7-10---------|
 
In this chorus(b), the bass does different fills at the end of the riff, 
so do whatever you want.
 
outro:x4
G|-------------------------------------------------|
D|------------------------------------6h7-9p7-6----|
A|--5h7777777-6h7777777-6h7777777-6h7-----------7--|
E|-------------------------------------------------|
 
It sounds like the outro is played over the chorus riff.  You decide.
 
ending:x1
G|-----------------|
D|-----------------|
A|--7-7------------|
E|------7-10-7-7--|
 
HAVE FUN!!!!


		   
AcordesyTabs.com © 2008 Acordes y Tablaturas para guitarra. Tabs and Chords for guitar. Aviso Legal - Contacto
El uso de este sitio está sujeto a la aceptación de los términos y condiciones (22 usuarios online)