tablaturas, partituras y acordes para guitarra
Busca por banda/artista:
 
y/o título de la canción:
A B C D E F G H I J K L M N O P Q R S T U V W X Y Z 0 1 2 3 4 5 6 7 8 9 / Top 100 tabs
Categorías
Usuarios
usuario:
Darse de alta
password:
Artistas más visitados
Publicidad
TOP acordes y tablaturas de Kill Aniston


Estás en: Inicio > Letra K > Acordes y tablaturas de Kill Aniston > Buenos días sin café
Buenos días sin café
de Kill Aniston
Puntúa este acorde/tab:      
(0.5/5)
Reportar este acorde/tab
  Añadir a tus favoritos
  Imprimir
           Verso
G|--------|--------------------------------------------|
D|--------|--------------------------------------------|
A|--------|------------2-2--2-2---4-4--4-4---6-6--7-7--|
E|--------|--5-5--5-5----------------------------------|
Coro
G|---------------------------------------------------------------------|
D|---------------------------------------------------------------------|
A|---------------------------------------------------------------------|
E|-5-5-5-5-5-5-5-5--4-4-4-4-4-4-4-4--2-2-2-2-2-2-2-2--0-0-0-0-0-0-0-0--|

G|---------------------------------------------------------------------|
D|---------------------------------------------------------------------|
A|---------77777777----------------------------------------------------|
E|-5-5-5-5----------4-4-4-4-4-4-4-4--2-2-2-2-2-2-2-2--0-0-0-0-0-0-0-0--|
Otro
G|------------------------------------------------------------------------|
D|------------------------------------------------------------------------|
A|---------7-7-7-7-7-7-7-7----------------4-4-4-4-4-4-4-4-2-2-2-2-2-2-2-2-|
E|-5-5-5-5-----------------5-5-5-5-5-5-5-5--------------------------------|
Final
G|------------------------------------------------------------------------|
D|------------------------------------------------------------------------|
A|---------7-7-7-7-7-7-7-7-------------------(4)--------------------------|
E|-5-5-5-5------------------5-5-5-5-5-5-5-5-------------------------------|
		   
AcordesyTabs.com © 2008 Acordes y Tablaturas para guitarra. Tabs and Chords for guitar. Aviso Legal - Contacto
El uso de este sitio está sujeto a la aceptación de los términos y condiciones (29 usuarios online)