tablaturas, partituras y acordes para guitarra
Busca por banda/artista:
 
y/o título de la canción:
A B C D E F G H I J K L M N O P Q R S T U V W X Y Z 0 1 2 3 4 5 6 7 8 9 / Top 100 tabs
Categorías
Usuarios
usuario:
Darse de alta
password:
Artistas más visitados
Publicidad
TOP acordes y tablaturas de Rush


Estás en: Inicio > Letra R > Acordes y tablaturas de Rush > Apollo dionysus
Apollo dionysus
de Rush
Puntúa este acorde/tab:      
(0.5/5)
Reportar este acorde/tab
  Añadir a tus favoritos
  Imprimir
                  6
     s s s s s^s^s^s^s^s s s s s     q       e   e   e   e   e
H|-------------------------------|---C-------X---X---X---X---X---|
S|3:-F-X-X-X-X-X-X-X-X-X-X-X-X-X-|7:-----------------X-----------|
T|4:-----------------------------|8:-----------------------------|
F|-------------------------------|---X-------X---------------X---|

     e   e   e   e   e   e   e       e   e   e   e   e   e   e
H|---O---X---O---X---X---X---X---|---O---X---O---X---X---X---X---|
S|-------------------X-----------|-------------------X-----------|
T|-------------------------------|-------------------------------|
F|---X-------X-----------X---X---|---X-------X-----------X---X---|

     e   tttts s s s s s s s s s     e   e   e   e   e   e   e
H|---O---------------------------|---C-------X---X---X---X---X---|
S|-------XXXXX-X-X-X-------------|-------------------X-----------|
T|-------------------6-6-7-7-X-X-|-------------------------------|
F|---X---------------------------|---X-------X-----------X---X---|

     e   e   e   e   e   s s s s     e   e   e   e   e   e   e
H|---O---X---O---X---X---X---X---|---O---X---O---X---X---X---X---|
S|-------------------X-----X---X-|-------------------X-----------|
T|-------------------------------|-------------------------------|
F|---X-------X-------------------|---X-------X-----------X---X---|

     q       q       e   e   e       e   e   e   e   e   s s s s
H|---C-------X-------X---O-------|---O---X---X---X---X---X---X---|
S|-------------------X---X-------|-------------------X-----X---X-|
T|-------------------------------|-------------------------------|
F|---X-------X---------------X---|---X-------X-------------------|

     e   e   e   e   s s s s s s     q       e   e   e   e   e   e
H|---O---X---O---X---------------|---C-------R---R---R---R---R---R---|
S|-------------------X-X---------|4:-----------------X---------------|
T|-----------------------7-7-X-X-|4:---------------------------------|
F|---X-------X-------------------|---X---------------------------X---|

     e   e   e   e   e   e   e   e       e   e   e   e   e   e   e   e
H|---R---R---R---R---R---R---R---R---|---R---R---R---R---R---R---R---R---|
S|-------------------X---------------|-------------------X---------------|
T|-----------------------------------|-----------------------------------|
F|---X-----------X-------X-------X---|---X-----------X---------------X---|

     e   e   e   e   s s e   e   e       q       e   e   e   e   e   e
H|---R---R---R---R---R---T---R---R---|---C-------R---R---R---R---R---R---|
S|-------------------X-X-------------|-------------------X---------------|
T|-----------------------------------|-----------------------------------|
F|---X-----------X-------X-------X---|---X-----------X---------------X---|

     e   e   e   e   e   e   e   e       e   e   e   e   e   e   e   e
H|---R---R---R---R---R---R---R---R---|---R---R---R---R---R---R---R---R---|
S|-------------------X---------------|-----------------------X---X-------|
T|-----------------------------------|-----------------------------------|
F|---X-----------X-------X-------X---|---X-----------X-------------------|

                    6
     q^^^^^q^^^^^q^^^^^q^^^^^q^^^^^q      q       q       e   s s s s
H|---C--------------------------------|---C-------X-------X---X---X---|
S|------------------------------------|7:-----------------------X---X-|
T|--------x6----x6----x6----x6----x6--|8:-----------------------------|
F|---X--------------------------------|---X-------X-------------------|

     e   e   e   e   e   s s s s     e   e   e   e   e   s s s s
H|---O---X---O---X---X---X---X---|---O---X---O---X---X---X---X---|
S|-------------------X-----X---X-|-------------------X-----X---X-|
T|-------------------------------|-------------------------------|
F|---X-------X-------------------|---X-------X-------------------|

     q   tttts s s s s s s s s s     q       q       e   e   s s
H|---C-------------------O---O---|---C-------X-------X-------X---|
S|-------XXXXX-X-X-X-X-X---------|-------------------X-----X---X-|
T|-------------------------------|-------------------------------|
F|---X-------------------X-P-X-P-|---X-------X-------------------|

     e   e   e   e   e   e   e        q       e   e   e   e   e   e
H|---O---X---O---X---------------||---C-------R---R---R---R---R---R---|
S|-------------------------------||4:-----------------X---------------|
T|------------------x6--x7--xX---||4:---------------------------------|
F|---X-------X-------------------||---X-----------X---------------X---|
                                     __________________________________
                                     | 1.
     e   e   e   e   e   e   e   e   |   e   e   e   e   e   e   e   e
H|---R---R---R---R---R---R---R---R---|---R---R---R---R---R---R---R---R---|
S|-------------------X---------------|-------------------X---------------|
T|-----------------------------------|-----------------------------------|
F|---X-----------X-------X-------X---|---X-----------X---------------X---|
___________________________________  ____________________________________
                                     | 2.
     e   e   e   e   e   e   e   s s |   e   e   e   e   e   e   e   e
H|---R---R---R---R---R---R---R---R---|---R---R---R---R---R---R---R---R---|
S|-------------------X-----X-----X-X-|-----------------------X---X-------|
T|-----------------------------------|-----------------------------------|
F|---X-----------X-------------------|---X-----------X-------------------|

                  6    > >    6      >
     q       s^s^s^s^s^s s^s^s^s^s^s q+
H|---C-------X-X-X-X-X-X-X-X-X-X-X-O-O---|
S|---------------------------------------|
T|---------------------------------------|
F|---X-----------------------------------|

Play 3 times
              >       >       >           >       >       >
      q       s s s s s s s s e       e   s s s s s s s s e   q
H||---C-------H-H-H-H-H-H-H-H-H---|---C---H-H-H-H-H-H-H-H-H---C-------||
S||7:-----------------------------|4:--------------------------------:||
T||8:-----------------------------|4:--------------------------------:||
F||---X---------------------------|---X-----------------------X-------||

             >       >       >
     q       s s s s s s s s e       q       q       q       e
H|---C-------H-H-H-H-H-H-H-H-H---|---C-------C-------C---------------|
S|7:-----------------------------|---------------------------F-------|
T|8:-----------------------------|-----------------------------------|
F|---X---------------------------|---X-------X-------X---------------|

     q       q       e   e   e       e   e   e   e   e   e+
H|---c-------c-------c---c---r---|-----------------------C---|
S|---------------------------e---|-------------------F-------|
T|---------------------------s---|---------------------------|
F|---X-------X-------X---X---t---|-----------------------X---|

     e   e   e   e   e   e   e   e       e   e   e   e   e   e   e   e
H|-------O---X---O---X---O---X---O---|---X---O---X---O---X---O---X-------|
S|-----------X--------(X)----X-------|-----------X--------(X)----X-------|
T|-----------------------------------|-----------------------------------|
F|-------X-----------X-----------X---|-------X-----------X-----------X---|

                                                            3
     e   e   e   e   e   e   e   e       e   e   e   e   e^^e^^e  q
H|---X---O---X---O---X---O---X---O---|---X---O---X---O-------------------|
S|-----------X--------(X)----X-------|-----------X-------X---------------|
T|-----------------------------------|----------------------4--5--6------|
F|-------X-----------X-----------X---|-------X---------------------------|

     q       q       q       e   e+      e   e   e   e   e   e   e   e
H|---r-------C-------C-----------C---|-------H---H---H---H---H---H---H---|
S|---e-----------------------X-------|-----------X---------------X-------|
T|---s-------------------------------|-----------------------------------|
F|---t-------X-------X-----------X---|-------X-----------X---------------|

     e   e   e+  e   e   e   e+  e       e   e   e+  e   s s s s s s e
H|---H---H---C-------H---H---C-------|---H---H---C-------------------C---|
S|-----------X---------------X-------|-----------X-------X-X-------------|
T|-----------------------------------|-----------------------6-6-7-7-----|
F|---X---X-----------X---X-----------|---X---X-----------------------X---|

     e   e   e   e   e   e   e   e       e   e   e   e   e   e   e   e
H|-------O---X---O---X---O---X---O---|---X---O---X---O---X---O---X-------|
S|-----------X--------(X)----X-------|-----------X--------(X)----X-------|
T|-----------------------------------|-----------------------------------|
F|-------X-----------X-----------X---|-------X-----------X-----------X---|

                                                            3
     e   e   e   e   e   e   e   e       e   e   e   e   e^^e^^e  q
H|---X---O---X---O---X---O---X---O---|---X---O---X---O-------------------|
S|-----------X--------(X)----X-------|-----------X-----------------------|
T|-----------------------------------|------------------x3-x3-x3-x4------|
F|-------X-----------X-----------X---|-------X---------------------------|

     q       q       q       e   e+      e   e   e   e   e   e   e   e
H|---r-------C-------C-----------C---|---------------O---X---O---X---O---|
S|---e-----------------------X-------|-----------X--------(X)----X-------|
T|---s-------------------------------|-----------------------------------|
F|---t-------X-------X-----------X---|-------X-----------X---------------|

     e   e   e   e   e   e   e   e       e   e   e   e   e   e   e   e
H|---R---R---C---C---R---R---C---C---|---R---R---C---C---------------C---|
S|-----------X---X-----------X---X---|-----------X---X---F---------------|
T|-----------------------------------|-----------------------4---6-------|
F|---X---X-----------X---X-----------|---X---X-----------------------X---|

     e   e   e   e   e   e   e   e       e   e   e   e   e   e   e   e
H|-------O---X---O---X---O---X---O---|---X---O---X---O---X---O---X-------|
S|-----------X--------(X)----X-------|-----------X--------(X)----X-------|
T|-----------------------------------|-----------------------------------|
F|-------X-----------X-----------X---|-------X-----------X-----------X---|

     e   e   e   e   e   e   e   e       e   e   e   e   s s s s s s e
H|---X---O---X---O---X---O---X---O---|---X---O---X---O-------O---O---r---|
S|-----------X--------(X)----X-------|-----------X-------X-X---------e---|
T|-----------------------------------|-------------------------------s---|
F|-------X-----------X-----------X---|-------X---------------X-P-X-P-t---|

     q       q       q       e   e+      e   e   e   e   e   s s e   e
H|---r-------C-------C-----------C---|-------R---R---R---R---R---R---R---|
S|---e-----------------------X-------|-----------X---------------X-------|
T|---s-------------------------------|-----------------------------------|
F|---t-------X-------X-----------X---|-------X-----------X-----X---------|

     e   e   E     s e   E     s e       E     s e   e   e   e   e   e
H|-------T---T-------T---T-------T---|---T-------T---T-------C---C---C---|
S|-------X---X-------X---X-------X---|---X-------X---X---F---------------|
T|-----------------------------------|-----------------------------------|
F|---X-------------X-----------X-----|---------X-------------X---X---X---|

     e   e   e   e   e   e   e   e       e   s s s s e   e   e   e   e
H|-------R---R---R---R---R---R---R---|---R-------r-----------C---C---C---|
S|-----------X-------X-------X-------|---X-------e-------F---------------|
T|-----------------------------------|-------6-6-s-6-6-------------------|
F|-------X-------X-------X-------X---|-----------t-----------X---X---X---|

     e   e   e   e   s s s s e   s s     s s s s e   e   e   s s e   s s
H|---r---B---B---B---B---B-B-----B---|---B---B-B-----B---B---B-B-----B---|
S|---e-------X--------(X)----X----(X)|----(X)----X----(X)-(X)----X----(X)|
T|---s-------------------------------|-----------------------------------|
F|---t---X-----------X-----------X---|---------------X---X---X-------X---|

     s s s s e   s s s s s s e   s s     s s s s e   e   e   s s s s e
H|---B---B-B-----B---B---B-B-----B---|---B---B-B-----B---B-----------C---|
S|----(X)----X----(X)-(X)----X----(X)|----(X)----X-----------X-X-X-X-----|
T|-----------------------------------|-----------------------------------|
F|-------X-------X---X-----------X---|-------X-------X---X-----------X---|

     e   e   e   e   s s s s e   s s     s s s s e   e   e   s s e   s s
H|---r---B---B---B---B---B-B-----B---|---B---B-B-----B---B---B-B-----B---|
S|---e-------X--------(X)----X----(X)|----(X)----X----(X)-(X)----X----(X)|
T|---s-------------------------------|-----------------------------------|
F|---t---X-----------X-----------X---|---------------X---X-----------X---|

     s s s s e   s s s s s s e   s s     s s s s s s s tts s s s s s e
H|---B---B-B-----B---B---B-B-----B---|-------------------------------C---|
S|----(X)----X----(X)-(X)----X----(X)|---X-X-----------------------------|
T|-----------------------------------|-------4-4-5-5-6-666-6-6-6-7-7-----|
F|-------X-----------X-----------X---|-------------------------------X---|

     e   e   e   e   s s s s e   s s     s s s s e   e   e   s s e   s s
H|---r---B---B---B---B---B-B-----B---|---B---B-B-----B---B---B-B-----B---|
S|---e-------X--------(X)----X----(X)|----(X)----X----(X)-(X)----X----(X)|
T|---s-------------------------------|-----------------------------------|
F|---t---X-----------X-----------X---|---------------X---X-----------X---|

     s s s s e   s s s s s s e   s s     s s s s s tts tts tts tte   e
H|---B---B-B-----B---B---B-B-----B---|-----------------------C---C---C---|
S|----(X)----X----(X)-(X)----X----(X)|---X-X---------X---X---X---X---X---|
T|-----------------------------------|-------6-6-7-7-X---X---------------|
F|-------X-----------X-----------X---|--------------X--XX--XX--XX--------|
                                                       RL  RL  RL

     e   e   e   e   s s s s e   s s     s s s s e   e   e   s s e   s s
H|---r---B---B---B---B---B-B-----T---|---B---B-B-----B---B---B-B-----T---|
S|---e-------X--------(X)----X----(X)|----(X)----X----(X)-(X)----X----(X)|
T|---s-------------------------------|-----------------------------------|
F|---t---X-----------X-----------X---|---------------X---X-----------X---|

     s s s s e   s s s s s s e   s s     s s s s s s s s s s e   e
H|---B---B-B-----B---B---B-B-----B---|-------------------------------|
S|----(X)----X----(X)-(X)----X----(X)|7:-X-X---X-----X---X---X---X---|
T|-----------------------------------|8:-----5---5-6-X---X---X---X---|
F|-------X-----------X-----------X---|-----------------X---X---------|

      q+      q       h                   h               e   e+  e   e
H||---C---------------r---------------|---r---------------r---C-------C---||
S||4:-----------------e---------------|---e---------------e--------------:||
T||4:-----------------s---------------|---s---------------s--------------:||
F||---X---------------t---------------|---t---------------t---X-------X---||


Dionysus

     q       s s s s s s s s s s     s s s s s s s s s s s s s s
H|---C-------X-X-X-X---X-X-O-X-X-|---O-O-X-X-O-O-X-X---X-X-O-X-X-|
S|7:-----------------X-----------|-------------------X-----------|
T|8:-----------------------------|-------------------------------|
F|---X-------X-------------------|---X-------X-------------------|

                                             > >     > >
     s s s s s s s s s s s s s s     q       s s s s s s s s s s
H|---O-O-X-X-O-O-X-X---X-X-O-X-X-|---C---------------------------|
S|-------------------X-----------|-------------------------------|
T|-------------------------------|-----------3-3-4-4-5-5-6-6-7-7-|
F|---X-------X-------------------|---X---------------------------|

     q       s s s s s s s s s s     s s s s e   s   s s s s s s
H|---C-------X-X-X-X---X-X-O-X-X-|---O-O-X-X-X---X---X-X-X-O-----|
S|-------------------X-----------|-------------------X-------X-X-|
T|-------------------------------|-------------------------------|
F|---X-------X-------------------|---X-------X-------------------|

                                         6
     q       e   e   s s s s s s     s^s^s^s^s^s s s s s s s s s s s
H|---C-------X---X-----X-X-O-X-X-|-----------------------O---O---O---|
S|-------------------X-----------|---------------X-X-X-X-------------|
T|-------------------------------|---5-5-5-5-5-5---------------------|
F|---X-------X-------------------|-----------------------X-P-X-P-X-P-|

     q       s s s s s s s s s s     e   E     s e   E     s e
H|---C-------X-X-X-X---X-X-X-X-X-|---C---------------------------|
S|-------------------X-----------|-------------------------------|
T|-------------------------------|------x4-----5-5--x6-----7-7---|
F|---X-------X-------------------|---X---------------------------|

     q+      q       e   e   e   e       e   e   e   e   e   e   e   e
H|---C---------------R---R---R---R---|---R---R---R---R---R---R---R---R---|
S|4:-----------------X---------------|-------------------X---------------|
T|4:---------------------------------|-----------------------------------|
F|---X---------------------------X---|---X-----------X-------X-------X---|

                                                 China(?) - - - - - - - -
     e   e   e   e   e   e   e   e       e   s s s s s s s s s s s s s s
H|---R---R---R---R---R---R---R---R---|---R-------------------------------|
S|-------------------X---------------|-------X-X---X-X---X-X---X-X---X-X-|
T|-----------------------------------|-----------------------------------|
F|---X-----------X---------------X---|---X-------X-----X-----X-----X-----|

     q+      e   e   e   e   e   e       e   e   e   e   e   e   e   e
H|---C---------------R---R---R---R---|---R---R---R---R---R---R---R---R---|
S|-------------------X---------------|-------------------X---------------|
T|-----------------------------------|-----------------------------------|
F|---X-----------X---------------X---|---X-----------X-------X-------X---|

                                               3                 6
     e   e   e   e   e   e   e   e       q^^^^^q^^^^^q    e^^e^^e^^e^^e^^e
H|---R---R---R---R---R---R---R---R---|---C---------------------------------|
S|-----------------------X---X-------|-------------------------------------|
T|-----------------------------------|---------6-----6----6--6--6--6--6--6-|
F|---X-----------X-------------------|---X---------------------------------|

     q       s s s s s s s s s s     s s s s s s s s s s s s s s
H|---C-------X-X-X-X---X-X-O-O-X-|---O-O-X-X-O-O-X-X---X-X-X-O-O-|
S|7:-----------------X-----------|-------------------X-----------|
T|8:-----------------------------|-------------------------------|
F|---X-------X-----------X-------|---X-------X-------------------|

     q       e   e   s s s s s s     s s s s s s s s s s s s s s
H|---C-------X---X---X-X-X-O-O-X-|---X-X-X-X-X-X-X-X---X-X-X-X-X-|
S|-------------------X-----------|-------------------X-----------|
T|-------------------------------|-------------------------------|
F|---X-------X-------------------|---X-------X---------X-----X---|

     q       s s s s s s s s s s     e   E     s e   E     s s s
H|---C-------X-X-X-X---X-X-X-X-X-|---C---------------------------|
S|-------------------X-----------|-------------------------------|
T|-------------------------------|------x3-----4-4--x5-----6-7-7-|
F|---X-------X---------------X---|---X---------------------------|

     q+      q       e   e   e   e       e   e   e   e   e   e   e   e
H|---C---------------R---R---R---R---|---R---R---R---R---R---R---R---R---|
S|4:-----------------X---------------|-------------------X---------------|
T|4:---------------------------------|-----------------------------------|
F|---X---------------------------X---|---X-----------X-------X-------X---|

                                               3
     e   e   e   e   e   e   e   e       q^^^^^q^^^^^q     e   s s e   e
H|---R---R---R---R---R---R---R---R---|---T-----T-----T-----r-------R---R---|
S|-------------------X---------------|---------------------e-------X---X---|
T|-----------------------------------|---------------------s---------------|
F|---X-----------X---------------X---|---X-----X-----X-----t---X-X---------|

     q+      e   e   e   e   e   e       e   e   e   e   e   e   e   e
H|---C---------------R---R---R---R---|---R---R---R---R---R---R---R---R---|
S|-------------------X---------------|-------------------X---------------|
T|-----------------------------------|-----------------------------------|
F|---X-----------X---------------X---|---X-----------X-------X-------X---|

                                                      6    > >    6      >
     e   e   e   e   e   e   q           q       s^s^s^s^s^s s^s^s^s^s^s q+
H|---R---R---R---R---R---R-----------|---C-------X-X-X-X-X-X-X-X-X-X-X-O-O---|
S|-----------------------X-----------|---------------------------------------|
T|---------------------------5-------|---------------------------------------|
F|---X-----------X-------------------|---X-----------------------------------|

              >       >       >           >       >       >
      q       s s s s s s s s e       e   s s s s s s s s e   q
H||---C-------H-H-H-H-H-H-H-H-H---|---C---H-H-H-H-H-H-H-H-H---C-------||
S||7:-----------------------------|4:--------------------------------:||
T||8:-----------------------------|4:--------------------------------:||
F||---X---------------------------|---X-----------------------X-------||

             >       >       >
     q       s s s s s s s s e       q       q       q       e
H|---C-------H-H-H-H-H-H-H-H-H---|---C-------C-------C---------------|
S|7:-----------------------------|---------------------------F-------|
T|8:-----------------------------|-----------------------------------|
F|---X---------------------------|---X-------X-------X---------------|

     q       q       e   e   e       e   e   e   e   e   e+
H|---c-------c-------c---c---r---|-----------------------C---|
S|---------------------------e---|-----------X---------------|
T|---------------------------s---|---------------4---6-------|
F|---X-------X-------X---X---t---|-----------------------X---|

     e   e   e   e   e   e   e   e       e   e   e   e   e   e   e   e
H|-------O---X---O---X---O---X---O---|---X---O---X---O---X---O---X-------|
S|-----------X--------(X)----X-------|-----------X--------(X)----X-------|
T|-----------------------------------|-----------------------------------|
F|-------X-----------X-----------X---|-------X-----------X-----------X---|

                                                            3
     e   e   e   e   e   e   e   e       e   e   e   e   e^^e^^e  q
H|---X---O---X---O---X---O---X---O---|---X---O---X---O-------------------|
S|-----------X--------(X)----X-------|-----------X-------F--X--X---------|
T|-----------------------------------|----------------------------3------|
F|-------X-----------X-----------X---|-------X---------------------------|

     q       q       q       e   e+      e   e   e   e   e   e   e   e
H|---r-------C-------C-----------C---|-------H---H---H---H---H---H---H---|
S|---e-----------------------X-------|-----------X---------------X-------|
T|---s-------------------------------|-----------------------------------|
F|---t-------X-------X-----------X---|-------X-----------X---------------|

                                              6           6
     e   e   e+  e   e   e   e+  e       s^s^s^s^s^s s^s^s^s^s^s s s s s s s e
H|---H---H---C-------H---H---C-------|---------------------------------------C-|
S|-----------X---------------X-------|---X-X-X-X-X-X-X-X-X-X-X-X-X-X-X-X-X-X---|
T|-----------------------------------|-----------------------------------------|
F|---X---X-----------X---X-----------|---------------------------------------X-|

     e   e   e   e   e   e   e   e       e   e   e   e   e   e   e   e
H|-------O---X---O---X---O---X---O---|---X---O---X---O---X---O---X-------|
S|-----------X--------(X)----X-------|-----------X--------(X)----X-------|
T|-----------------------------------|-----------------------------------|
F|-------X-----------X-----------X---|-------X-----------X-----------X---|

                                                            3
     e   e   e   e   e   e   e   e       e   e   e   e   e^^e^^e  q
H|---X---O---X---O---X---O---X---O---|---X---O---X---O-------------------|
S|-----------X--------(X)----X-------|-----------X-----------------------|
T|-----------------------------------|-------------------6--6--6--6------|
F|-------X-----------X-----------X---|-------X---------------------------|

     q       q       q       e   e+      e   e   e   e   e   e   e   e
H|---r-------C-------C-----------C---|---H---H---H---H---H---H---H---H---|
S|---e-----------------------X-------|-----------X---------------X-------|
T|---s-------------------------------|-----------------------------------|
F|---t-------X-------X-----------X---|-------X-----------X---------------|

     e   e   e   e   e   e   e   e       e   e   s s s s s s e   e   e
H|---H---H---C---C---H---H---C---C---|-------------------------------C---|
S|-----------X---X-----------X---X---|-----------X-X---------X-----------|
T|-----------------------------------|---6---6-------6-6-X---X---6-------|
F|---X---X-----------X---X-----------|---------------------X---------X---|

     e   e   e   e   e   e   e   e       e   e   e   e   e   e   e   e
H|-------O---X---O---X---O---X---O---|---X---O---X---O---X---O---X-------|
S|-----------X--------(X)----X-------|-----------X--------(X)----X-------|
T|-----------------------------------|-----------------------------------|
F|-------X-----------X-----------X---|-------X-----------X-----------X---|

                                                            3
     e   e   e   e   e   e   e   e       e   e   e   e   e^^e^^e  q
H|---X---O---X---O---X---O---X---O---|---X---O---X---O------------c------|
S|-----------X--------(X)----X-------|-----------X-------F---------------|
T|-----------------------------------|-----------------------------------|
F|-------X-----------X-----------X---|-------X--------------X--X--X------|

     q       q       q       e   e+      e   e   e   e   e   s s e   e
H|---r-------C-------C-----------C---|-------R---R---R---R---R---R---R---|
S|---e-----------------------X-------|-----------X---------------X-------|
T|---s-------------------------------|-----------------------------------|
F|---t-------X-------X-----------X---|-------X-----------X---X-X---------|

     e   e   E     s e   E     s e       E     s e   e   e   e   e   e
H|-------T---T-------T---T-------T---|---T-------T---T-------C---C---C---|
S|-------X---X-------X---X-------X---|---X-------X---X---F---------------|
T|-----------------------------------|-----------------------------------|
F|---X-------------X-----------X-----|---------X-------------X---X---X---|

     e   e   e   e   e   e   e   e       e   s s s s e   e   e   e   e
H|-------R---R---R---R---R---R---R---|---R-------------------C---C---C---|
S|-----------X-------X-------X-------|---X---------------F---------------|
T|-----------------------------------|-------6-6-6-6-6-------------------|
F|-------X-------X-------X-------X---|-----------------------X---X---X---|

      e   e   e   e   e   e   e   e       e   e   e   e   e   e   e   e
H||---C-------R---R---R---R---R---R---|---C-------R---R---C-------C---C---||
S||:----------------------------------|----------------------------------:||
T||:----------------------------------|----------------------------------:||
F||---X---X---X---X---X---X---X---X---|---X---X---X---X---X---X---X---X---||

                                                                 6
     q       q       q       q           q       q       e^^e^^e^^e^^e^^e
H|---C-------R-------C-------R-------|---C-------R-------C----------------|
S|-------------------X---------------|-------------------X--------X-------|
T|-----------------------------------|----------------------5--6-----5--6-|
F|---X-------------------------------|---X--------------------------------|


KEY:

 Hi-hats & Cymbals  -O-X-H--C-R-B-S-T-c-
             Snare  -X-S-R-F------------
               Tom  -1-2-3-4-5-6-7-X----
       Foot Pedals  -X-P----------------


Hi-hats & Cymbal line:

Hi-hats  O - OPEN HH
         X - CLOSED HH
         P - PEDAL HH
         H - HALF OPEN HH
Cymbals  C - CRASH
         c - CRASH CHOKE
         R - RIDE
         B - RIDE BELL
         S - SPLASH
         T - CHINA (AKA TRASH)

Snare line:
     X - SINGLE HIT
     R - RIMSHOT
     F - FLAM (Hit with both sticks, one slightly before the other)
     S - SIDE STICK
     x - GRACE NOTE (hit snare slightly and right before the prime note)

Tom line:
        Notated by number. 1 being the highest sounding to the lowest tom.
        (The numbers depend on how many toms Neil is using in any given song,
        it's up to you to fit them into your drumset.)
        X - Floor tom
 NOTE - Originally this key had two tom lines, but I decided to use
        just one too keep it simpler.
        A second tom line will be added to the bar ONLY if two toms are
        played at once.
 Foot Pedal line:
        X - KICK DRUM
        P - Hi-hat pedal
        When the right and left kick drums are being used together they will
        be notated with a right (R) or a left (L)

Rhythm:
w whole note                    W dotted whole note
h half note                     H dotted half note
q quarter note                  Q dotted quarter note
e eighth note                   E dotted eighth note
s sixteenth note                S dotted sixteenth note
t thirty-second note            T dotted thirty-second note

% - Repeat last measure

Fermata - Hold the note at pleasure

> - Accent: When a note is given special emphasis

||----||
||o--o||  Repeat
||o--o||  Signs
||----||

As a general rule, the rhythm shown above the staff will be the composite
rhythm for all the drums, as this is the only way to notate this, short
of assigning each line on the staff it's own rhythm :P.		   
AcordesyTabs.com © 2008 Acordes y Tablaturas para guitarra. Tabs and Chords for guitar. Aviso Legal - Contacto
El uso de este sitio está sujeto a la aceptación de los términos y condiciones (31 usuarios online)