tablaturas, partituras y acordes para guitarra
Busca por banda/artista:
 
y/o título de la canción:
A B C D E F G H I J K L M N O P Q R S T U V W X Y Z 0 1 2 3 4 5 6 7 8 9 / Top 100 tabs
Categorías
Usuarios
usuario:
Darse de alta
password:
Artistas más visitados
Publicidad
TOP acordes y tablaturas de Rush


Estás en: Inicio > Letra R > Acordes y tablaturas de Rush > Ghost chance
Ghost chance
de Rush
Puntúa este acorde/tab:      
(0.4/5)
Reportar este acorde/tab
  Añadir a tus favoritos
  Imprimir
 riff A   |--------------------------------------|
-------------------------------------------------
-------------------------------------------------
--4--4--4---4----4--4--4--4-----4-------4--4--4--
--0--2--0---2>3--2--0--2--0-----4-------0--3--0--
-----------------------------0--2----------------
-------------------------------------------------

play riff A again

verse;

p.m.------------------------------------------------------------------------|

---------------------------------------------0------------------------------
--------0-----------0------------0--------------0--------0-----------0------
-----4-----4-----4------------------------4-----------4-----4-----4---------
--2-----------0---------------4-----4--4-----------2-----------0------------
-----------------------2------------------------------------------------2---
----------------------------------------------------------------------------

p.m.----------------------------------------------------------------------|

-----------------0-----------------------------------------------0-----
-----0--------------0--------0-----------0-----------0--------------0--
--------------4-----------4-----4-----4-----------------4--------------
--4-----4--------------2-----------0--------------4-----------4--------
-----------2--------------------------------2--------------2-----------
-----------------------------------------------------------------------

p.m.--------------------------------------------|

-----------------------------------------0-----
--------0-----------0-----------0-----------0--
-----4-----4-----4-----------------4-----------
--2-----------0--------------4-----------------
-----------------------2--------------2--------

play that section again, but let note ring.


Pre chorus is just the intro riff.

Chorus:

(clean)
--9--------------------------------------------------------------------------
--10-------------------------------------2-----------------------------------
--11-------------------------------------2-----------------------------------
--12-------------------------------------4-------------------		   
AcordesyTabs.com © 2008 Acordes y Tablaturas para guitarra. Tabs and Chords for guitar. Aviso Legal - Contacto
El uso de este sitio está sujeto a la aceptación de los términos y condiciones (96 usuarios online)