tablaturas, partituras y acordes para guitarra
Busca por banda/artista:
 
y/o título de la canción:
A B C D E F G H I J K L M N O P Q R S T U V W X Y Z 0 1 2 3 4 5 6 7 8 9 / Top 100 tabs
Categorías
Usuarios
usuario:
Darse de alta
password:
Artistas más visitados
Publicidad
TOP acordes y tablaturas de Rush


Prelude
de Rush
Puntúa este acorde/tab:      
(0.3/5)
Reportar este acorde/tab
  Añadir a tus favoritos
  Imprimir
Play 4 times
      q+      q       h                   q+      q       q       q
H||---C---------------r---------------|---C---------------r-------C-------||
S||:------------------e---------------|-------------------e--------------:||
T||:------------------s---------------|-------------------s--------------:||
F||---X---------------t---------------|---X---------------t-------X-------||

      q       e   Q               q       e   Q
H||---C-----------H-----------|---H-----------H-----------|-------|
S||6:-------------X-----------|---------------X-----------|---%---|
T||8:-------------------------|---------------------------|-------|
F||---X-------X---------------|---X-------X---------------|-------|

     Q           Q                q       e   Q
H|---C-----------C-----------||---C-----------C-----------|
S|--------------------------:||---------------X-----------|
T|--------------------------:||---------------------------|
F|---X-----------X-----------||---X-------X---------------|

     q       e   Q                       e   e   e   e   e   e
H|---R-----------C-----------|-------|---------------------------|
S|---------------X-----------|---%---|---X---X---X---X---X---X---|
T|---------------------------|-------|---X---X---X---X---X---X---|
F|---X-------X---------------|-------|---------------------------|

     Q           Q                Q           e   e   e
H|---C-----------X-----------|----X-----------X-----------|
S|---X-----------X-----------|----X-----------X---X---X---|
T|---------------------------|----------------------------|
F|---X-----------X-----------|----X-----------X-----------|

     Q           Q           e   e   e       Q           Q
H|---X-----------X-----------X-----------|---X-----------X-----------|
S|9:-X-----------X-----------X---X---X---|6:-X-----------X-----------|
T|8:-------------------------------------|8:-------------------------|
F|---X-----------X-----------X-----------|---X-----------X-----------|

     Q           e   e   e       Q           Q
H|---X-----------X-----------|---X-----------X-----------|
S|---X-----------X---X---X---|---X-----------X-----------|
T|---------------------------|---------------------------|
F|---X-----------X-----------|---X-----------X-----------|

     e   e   e   e   e   e
H|---H-------H-------H-------|
S|---X-------X-------X-------|
T|---------------------------|
F|-------X-------X-------X---|

Play 4 times
      q       e   Q                               q       e   e   e   e
H||---------------r-----------|-------|-------|---------------------------||
S||:--------------e-----------|-------|-------|--------------------------:||
T||:--6-------6---s-----------|---%---|---%---|---6-------6-------6------:||
F||---------------t-----------|-------|-------|---------------X-------X---||

     q       e   Q               q       e   Q
H|---C-----------r-----------|---------------r-----------|-------|
S|---X-----------e-----------|---------------e-----------|---%---|
T|-----------6---s-----------|---6-------6---s-----------|-------|
F|---------------t-----------|---------------t-----------|-------|

     q       e   e   e   e       q       e   Q
H|---------------------------|---C-----------r-----------|
S|---------------------------|---X-----------e-----------|
T|---6-------6-------6-------|-----------6---s-----------|
F|---------------X-------X---|---------------t-----------|

     q       e   Q               q       q       q
H|---------------r-----------|---------------------------|
S|---------------e-----------|---------------------------|
T|---6-------6---s-----------|---6-------6-------6-------|
F|---------------t-----------|---------------------------|

     q+      h
H|---C-----------------------|
S|3:-------------------------|
T|4:-------------------------|
F|---X-----------------------|

     >    6      >
     s^s^s^s^s^s s s s s s s s s     q       e   e   e   e   e
H|-------------------------------|---C-------X---X---X---X---X---|
S|3:-X-X-X-X-X-X-X-X-------------|7:-----------------X-----------|
T|4:-----------------5-5-6-6-7-7-|8:-----------------------------|
F|-------------------------------|---X-------X-------------------|

     e   e   e   e   e   e       e   e   e   e   e   e
H|---O---X---O---X---X---X---|---O---X---O---X---X---X---|
S|3:-----------------X---X---|-------------------X---X---|
T|4:-------------------------|---------------------------|
F|---X-------X---------------|---X-------X---------------|

      e   e   e   e   e   e   s s     e   s s e   e   e   s s
H||---C---O---X---O---X---O---X---|---O---X---O---X---O---X---|--------||
S||7:-----------------X--------(X)|3:------(X)----X----(X)-(X)|---%---:||
T||8:-----------------------------|4:-------------------------|-------:||
F||---X-----------X---------------|---X-------X---------------|--------||

     e   e   e   e   e   e   s s     e   s s e   e   e   s s
H|---C---O---X---O---X---O---X---|---O---X---O---X---O---X---|
S|7:-----------------X--------(X)|3:------(X)----X----(X)-(X)|
T|8:-----------------------------|4:-------------------------|
F|---X-----------X---------------|---X-------X---------------|

     e   s s s s s s s s s s     q       e   e   e   e   e   e
H|---O-----------------------|---C-------R-------R---R---R---R---|
S|3:-------------------------|4:-----------------X---------------|
T|4:-----5-5-5-5-6-6-6-6-7-7-|4:---------------------------------|
F|---X-----------------------|---X-----------X---------------X---|

     e   s s e   e   e   e   e   e       e   s s e   e   e   e   e   e
H|---R---R-R-R---R---R---R---R---R---|---R---R-R-R---R---R---R---R---R---|
S|-------------------X---------------|-------------------X---------------|
T|-----------------------------------|-----------------------------------|
F|---X-----------X-------X-------X---|---X-----------X---------------X---|

             >   >
     e   tttte   e   s s s s s s s s     q       e   e   e   e   e   e
H|---R---------------H-H---H-H---H-H-|---C-------R---R---R---R---R---R---|
S|-------XXXXX---X---X-X---X-X---X-X-|-------------------X---------------|
T|-----------------------------------|-----------------------------------|
F|---X-------------------X-----X-----|---X-----------X---------------X---|

                        3
     e   s s e   e   e^^e^^e  q          q       e   e   e   e   e   e
H|---R---R-R-R---R---T--T--T--T------|---C-------R---R---R---R---R---R---|
S|-------------------X--X--X--X------|-----------------------X---X-------|
T|-----------------------------------|-----------------------------------|
F|---X-----------X-------------------|---X-----------X-------------------|

     >    6      >  >
     s^s^s^s^s^s e  e   s s s s s s e
H|---R----------------------r-----r-----|
S|-----X-X-X-X-X-X--X-------e-----e-----|
T|----------------------6-6-s-6-6-s-6---|
T|----------------------7-7-t-7-7-t-7---|
F|---X----------------------------------|

     q       q       e   e   e       e   e   e   e   s e   s e
H|---C-------R-------R---R---R---|---R---R---R---R-----C---C-C---|
S|7:-----------------X-----------|-------------------X-----------|
T|8:-----------------------------|-------------------------------|
F|---X-------X---------------X---|---X-------X---------X---X-X---|

                                             >       >       >
     q       q       e   e   e       q       s s s s s s s s e+  e
H|---C-------R-------R---R---R---|---C-------H-H-H-H-H-H-H-H-O-------|
S|-------------------X-----------|4:---------------------------------|
T|-------------------------------|4:---------------------------------|
F|---X-------X-------------------|---X-------------------------------|

     e   s s s s s s s s s s     q       q       e   e   e
H|---C-----------------------|---C-------R-------R-----------|
S|3:-------------------------|7:-----------------X-----------|
T|4:-----4-4-5-5-6-6-7-7-X-X-|8:-----------------------------|
F|---X-----------------------|---X-------X-----------X---X---|

     q       q+      q       q           e   s s s s tttts s s s
H|---c-------C---------------r-------|---C-----------------------|
S|4:-------------------------e-------|3:-------------------------|
T|4:-------------------------s-------|4:-----6-6-7-7-55556-6-7-7-|
F|---X-------X---------------t-------|---X-----------------------|

     q       e   e   e   e   e       e   e   e   e   e   e   e
H|---C-------R---R---R---R---R---|---C---------------------------|
S|7:-----------------X-----------|-------X---F-------------------|
T|8:-----------------------------|---------------5--x5--x6--x7---|
F|---X-------X-----------X---X---|---X---------------------------|

     q       q       e   e   e   e       e   s s e   e   e   e   e   e
H|---C-------R-------R---R---R---R---|---R---R-R-R---R---R---R---R---R---|
S|4:-----------------X---------------|-------------------X---------------|
T|4:---------------------------------|-----------------------------------|
F|---X---------------------------X---|---X---------------------------X---|

                                                            3
     e   s s e   e   e   e   e   e       e   s s e   e   e^^e^^e  q
H|---R---R-R-R---R---R---R---R---R---|---R---R-R-R---R---S--S--S--S-------|
S|-------------------X---------------|------------------------------------|
T|-----------------------------------|-------------------6--6--6--6-------|
F|---X---------------------------X---|---X--------------------------------|

     q+      q       h     Fermata
H|---C-------------------------------|
S|-----------------------------------|
T|-----------------------------------|
F|---X-------------------------------|

Harmonics fade in
                     P = Crotale         Play 3 times
     q       e   s s e   s s e   s s      e   s s e   s s e   s s e   s s
H|-----------P---P-P-P---P-P-P---P-P-||---P---P-P-P---P-P-P---P-P-P---P-P--||
S|-----------------------------------||:----------------------------------:||
T|-----------------------------------||:----------------------------------:||
F|-----------------------------------||------------------------------------||

                                         Play 3 times
     e   s s e   s s e   s s e   s s      e   s s e   s s e   s s e   s s
H|---P---P-P-P---X-X-O---X-X-O---X-X-||---O---X-X-O---X-X-O---X-X-O---X-X--||
S|-----------------------------------||:----------------------------------:||
T|-----------------------------------||:----------------------------------:||
F|-----------------------------------||------------------------------------||

T = Tambourine(?)

      e   s s e   s s e   s s e   s s     e   s s e   s s e   s s e   s s
H||---O---X-X-O---X-X-O---X-X-O---X-X-|---O---X-X-O---X-X-O---X-X-O---X-X--||
S||:----------------------------------|---T-------------------------------:||
T||:----------------------------------|-----------------------------------:||
F||---X-------------------------------|---X--------------------------------||

     e   s s e   s s e   s s e   s s     e   s s e   s s e   s s e   s s
H|---C---X-X-O---X-X-O---X-X-O---X-X-|---O---X-X-O---X-X-O---X-X-O---X-X--|
S|-----------------------------------|---T-------T------------------------|
T|-----------------------------------|------------------------------------|
F|---X-------------------------------|---X-------X------------------------|

     e   s s e   s s e   s s e   s s     e   s s e   s s e   s s e   e
H|---O---X-X-O---X-X-O---X-X-O---X-X-|---O---X-X-O---X-X-O---X-X-O-------|
S|-----------------------------------|-----------------------------------|
T|-----------------------------------|-----------------------------------|
F|-----------------------------------|---X---------------------------P---|

     q       e   e   e   e   e   e   e       e   e   e   e   e   e   e   e
H|---C-------X---X---O---X---O---X---O---|---X---O---X---O---X---O---X---O---|
S|9:-------------X--------(X)----X-------|4:---------X--------(X)----X-------|
T|8:-------------------------------------|4:---------------------------------|
F|---X-------X-----------X-----------X---|-------X-----------X-----------X---|

                                                              6
     e   e   e   e   e   e   e   e       e   e   e   e   s^s^s^s^s^s q
H|---X---O---X---O---X---O---X---O---|---X---O---X---O---------------------|
S|-----------X--------(X)----X-------|-----------X-------X-X-X-X-X-X-F-----|
T|-----------------------------------|-------------------------------------|
F|-------X-----------X-----------X---|-------X-----------P-----------------|

     q       q       q       e   e       e   e   e   e   e   e   e   e
H|---P-------C-------C-----------C---|---X---O---X---O---X---O---X---O---|
S|---------------------------X-------|-----------X--------(X)----X-------|
T|-----------------------------------|-----------------------------------|
F|-----------X-------X-----------X---|-------X-----------X-----------X---|

                                             6           6
     e   s s e   e   e   s s e   e      s^s^s^s^s^s s^s^s^s^s^s e   e   e   e
H|---X---O---C---O---X---O---C---O---|--------------------------------------C--|
S|---X-------X-------X-------X-------|--X-X-X-X-X-X-7-7-7-7-7-7-6---6---7------|
T|-----------------------------------|-----------------------------------------|
F|---------X-----X---------X---------|--------------------------------------X--|

     e   e   e   e   e   e   e   e
H|---X---O---X---O---X---O---X---O---|-------------|-------------|
S|-----------X--------(X)----X-------|------%------|------%------|
T|-----------------------------------|-------------|-------------|
F|-------X-----------X-----------X---|-------------|-------------|

                        3
     e   e   e   e   e^^e^^e  q           q       q       q       e   e
H|---X---O---X---O--------------------|---r-------C-------C-----------C---|
S|-----------X------x4--5--6-x7-------|---e-----------------------X-------|
T|------------------------------------|---s-------------------------------|
F|-------X----------------------------|---t-------X-------X-----------X---|

     e   e   e   e   e   e   e   e       e   e   e   s s s s s s s s s s
H|---X---O---X---O---X---O---X---O---|-----------------------------------|
S|-----------X---------------X-------|---X---5---X---X-X(X)4(X)4(X)X-X-4-|
T|-----------------------------------|-----------------------------------|
F|-------X-----------X---X-----------|-----------------------------------|

     e   e   q       e   e   q           e   e   e   e   e   e   e
H|-------------------r---c-----------|-------C-------C-------C---C---|
S|-------X-----------e---------------|-------------------------------|
T|---5---------------s---------------|-------------------------------|
F|-------------------t---X-----------|-------X-------X-------X---X---|

When our weary was young....
     s s s s s s s s s s s s s s s s     s s s s s s s s s s s s s s s s
H|---X-X-O-O---X-O-O-X-X-O-O---X-O-O-|---X-X-O-O---X-O-O-X-X-O-O---X-O-O-|
S|-----------X---------------X-------|-----------X---------------X-------|
T|-----------------------------------|-----------------------------------|
F|-------------------X---------------|---X---------------X---X-----------|

     s s s s s s s s s s s s s s s s     s s s s s s s s s s s s s s e
H|---X-X-O-O---X-O-O-X-X-O-O---X-O-O-|---X-X-O-O-----O-O-----O-O-----C---|
S|-----------X---------------X-------|-----------X-X-----X-X-----X-X-----|
T|-----------------------------------|-----------------------------------|
F|---X---X-------X-------X-------X---|-------X-------X-------X-------X---|

     s s s s s s s s s s s s s s s s     s s s s s s s s s s s s s s s s
H|---X-X-O-O---X-O-O-X-X-O-O---X-O-O-|---X-X-O-O---X-O-O-X-X-O-O---X-O-O-|
S|-----------X---------------X-------|-----------X---------------X-------|
T|-----------------------------------|-----------------------------------|
F|-------------------X---------------|---X---------------X---------------|

     e   e   e   e+  e    e+  e   e+     s s e+  s s e+  s s e+  s s e+
H|---C-----------C--------C-------C--|-------C-------C-------C-------C---|
S|-------X---------------------------|---X-X-----X-X-----X-X-------------|
T|-----------6-----------------------|---------------------------4-4-----|
F|---X-----------X--------X-------X--|-------X-------X-------X-------X---|

     q+      q       h                    q       q       e   e
H|---C---------------r---------------|----r-----------------------|
S|-------------------e---------------|3:--e-----------------------|
T|-------------------s---------------|4:--s------x6------x6--x7---|
F|---X---------------t---------------|----t-----------------------|

                                                             3
     q+      q       h                    e   e   e   e   e^^e^^e
H|---C---------------r---------------|----r------------------------|
S|4:-----------------e---------------|3:--e------------------------|
T|4:-----------------s---------------|4:--s--x5--x5--x5--x6-x6-x6--|
F|---X---------------t---------------|----t------------------------|

     q       e   e   e   e   e   e        e   e   e   e   e   e
H|---C-------H---H---X---X---X---O---|----X---X---X---X---X---O---|
S|4:-----------------X---------------|3:------------------X-------|
T|4:---------------------------------|4:--------------------------|
F|---X-----------X---------------X---|--------X---X-----------X---|

Play 3 times
      e   e   e   e   e   e   e   e        e   e   e   e   e   e
H||---X---X---X---O---X---X---X---O---|----X---X---X---X---X---O---||
S||4:-----------------X---------------|3:------------------X------:||
T||4:---------------------------------|4:-------------------------:||
F||---X-----------X---------------X---|--------X---X-----------X---||

     e   e   e   e   e   e   e   e        e   e   e   s s s s
H|---X---X---X---O---X---X---X---O---|----X---H---H-----------|
S|4:-----------------X---------------|3:------X---X---X-X-----|
T|4:---------------------------------|4:------------------6-6-|
F|---X-----------X---------------X---|----P-------------------|

                 >       >       >
     e   e   e   e   e   e   e   e        e   e   e   s s s s s s
H|---C---H---H---H---H---H---H---H---|----H---H---H---------------|
S|4:-------------X-------X-----------|3:------X-------X-X---------|
T|4:---------------------------------|4:------------------7-7-X-X-|
F|---X---------------------------X---|----------------------------|

     e   e   e   e   e   e   e   e       e   e   e   e   e   e   e   e
H|---C---R---R---R---R---R---R---R---|---R---R---R---R---R---R---R---R---|
S|4:-----------------X---------------|-------------------X---------------|
T|4:---------------------------------|-----------------------------------|
F|---X-----------X---------------X---|---X-----------X-------X-------X---|

                                                              6
     e   e   e   e   e   e   e   e       e   s s s s s s s^s^s^s^s^s s s s s
H|---R---R---R---R---R---R---R---R---|---C-----------------------------------|
S|-------------------X---------------|---------------------------------------|
T|-----------------------------------|-------6-6-6-6-6-6-7-7-7-7-7-7-X-X-X-X-|
F|---X-----------X---------------X---|---X-----------------------------------|

                                                               3
     q       e   e   e   e   e   e       e   s e   s s s q^^^^^q^^^^^q
H|---C-------R---R---R---R---R---R---|---R---------------C-----C-----C---|
S|-------------------X---------------|-----------------------------------|
T|-----------------------------------|------x6x6--x6x6-------------------|
F|---X-----------X---------------X---|---X---------------X-----X-----X---|

     q       e   e   e   e   e   e       e   e   e   e   e+  e   e+  e
H|---C-------R---R---R---R---R---R---|---R---R---R---R---C-------C-------|
S|-------------------X---------------|-------------------X-------X-------|
T|-----------------------------------|-----------------------------------|
F|---X-----------X---------------X---|---X-----------X-------------------|

     e   e   e   e   e+  e   e+  e       e   e   e   e   e   e   E     s
H|---C---R---R---R---C-------C-------|---C---R---R---R---C---R---R-------|
S|-------------------X-------X-------|-------------------X---------------|
T|-----------------------------------|-----------------------------------|
F|---X-----------X-------------------|---X-----------X-----------------X-|

                3            6
     q       e^^e^^e  e^^e^^e^^e^^e^^e     q       e   Q               H
H|---C-------r-------------------------|---------------r-----------|---r-------|
S|---X-------e--X--X--X--X--X--X--X--X-|6:-X-------X---e-----------|---e-------|
T|-----------s--X--X--X--X--X--X--X--X-|8:-X-------X---s-----------|---s-------|
F|-----------t-------------------------|---------------t-----------|---t-------|

      q       e   Q               H
H||---T-------T---r-----------|---r-----------------------||
S||:--------------e-----------|---e----------------------:||
T||:--X-------X---s-----------|---s----------------------:||
F||---------------t-----------|---t-----------------------||

     q       e   Q               q       e   Q
H|---T-------T---r-----------|---T-------T---r-----------|
S|---------------e-----------|---------------e-----------|
T|---X-------X---s-----------|---X-------X---s-----------|
F|---------------t-----------|---------------t-----------|

      q       e   Q               q       e   Q
H||---C-----------R-----------|---R-----------R-----------|
S||:--------------X-----------|---------------X-----------|
T||:--------------------------|---------------------------|
F||---X-------X---------------|---X-------X---------------|

     q       e   Q               Q           Q
H|---R-----------R-----------|---C-----------C-----------||
S|---------------X-----------|--------------------------:||
T|---------------------------|--------------------------:||
F|---X-------X---------------|---X-----------X-----------||

     e   s s e   e   s s e       e   s s e   e   s s e
H|---C-----------------------|---C-----------------------|
S|---------------------------|---------------------------|
T|-------1-1-1---2---2-2-2---|-------4-4-4---5---5-5-5---|
F|---X-----------------------|---X-----------------------|

     e   s s e   e   e   e       q       q       q
H|---C-----------------------|---C-------C-------C-------|
S|---------------------------|---------------------------|
T|-------6-6-6---7---7---7---|---------------------------|
F|---X-----------------------|---X-------X-------X-------|

     H
H|---C-----------------------|
S|---------------------------|
T|---------------------------|
F|---X-----------------------|


KEY:

 Hi-hats & Cymbals  -O-X-H--C-R-B-S-T-c-
             Snare  -X-S-R-F------------
               Tom  -1-2-3-4-5-6-7-X----
       Foot Pedals  -X-P----------------


Hi-hats & Cymbal line:

Hi-hats  O - OPEN HH
         X - CLOSED HH
         P - PEDAL HH
         H - HALF OPEN HH
Cymbals  C - CRASH
         c - CRASH CHOKE
         R - RIDE
         B - RIDE BELL
         S - SPLASH
         T - CHINA (AKA TRASH)

Snare line:
     X - SINGLE HIT
     R - RIMSHOT
     F - FLAM (Hit with both sticks, one slightly before the other)
     S - SIDE STICK
     x - GRACE NOTE (hit snare slightly and right before the prime note)

Tom line:
        Notated by number. 1 being the highest sounding to the lowest tom.
        (The numbers depend on how many toms Neil is using in any given song,
        it's up to you to fit them into your drumset.)
        X - Floor tom
 NOTE - Originally this key had two tom lines, but I decided to use
        just one too keep it simpler.
        A second tom line will be added to the bar ONLY if two toms are
        played at once.
 Foot Pedal line:
        X - KICK DRUM
        P - Hi-hat pedal
        When the right and left kick drums are being used together they will
        be notated with a right (R) or a left (L)

Rhythm:
w whole note                    W dotted whole note
h half note                     H dotted half note
q quarter note                  Q dotted quarter note
e eighth note                   E dotted eighth note
s sixteenth note                S dotted sixteenth note
t thirty-second note            T dotted thirty-second note

% - Repeat last measure

Fermata - Hold the note at pleasure

> - Accent: When a note is given special emphasis

||----||
||o--o||  Repeat
||o--o||  Signs
||----||

As a general rule, the rhythm shown above the staff will be the composite
rhythm for all the drums, as this is the only way to notate this, short
of assigning each line on the staff it's own rhythm :P.		   
AcordesyTabs.com © 2008 Acordes y Tablaturas para guitarra. Tabs and Chords for guitar. Aviso Legal - Contacto
El uso de este sitio está sujeto a la aceptación de los términos y condiciones (98 usuarios online)