tablaturas, partituras y acordes para guitarra
Busca por banda/artista:
 
y/o título de la canción:
A B C D E F G H I J K L M N O P Q R S T U V W X Y Z 0 1 2 3 4 5 6 7 8 9 / Top 100 tabs
Categorías
Usuarios
usuario:
Darse de alta
password:
Artistas más visitados
Publicidad
TOP acordes y tablaturas de Marea


Estás en: Inicio > Letra M > Acordes y tablaturas de Marea > Los mismos clavos
Los mismos clavos
de Marea
Puntúa este acorde/tab:      
(0.4/5)
Reportar este acorde/tab
  Añadir a tus favoritos
  Imprimir
Esta es la intro de esta maravillosa canción de Marea
Que agan muchas mas como esta.



                           Fa
-------------------------------------------------
-----------------------------------1-------------
--5-5-7-5-----------2-3-------2--2-2----2--2-----
--5-5-5-5---5-5-3-5----------3--3--3---3--3------
----------------------------3--3------3--3-------
-------------------------------------------------

                           Fa
--------------------------------------
-----------------------------------1--
--5-5-7-5-----------2-3-------2--2-2--
--5-5-5-5---5-5-3-5----------3--3--3--
----------------------------3--3------
--------------------------------------



Si alguien puede conseguir el punteo de lo que sigue
que lo cuelgue por aqui
qe suba la marea!!!!!!!!!!!
		   
AcordesyTabs.com © 2008 Acordes y Tablaturas para guitarra. Tabs and Chords for guitar. Aviso Legal - Contacto
El uso de este sitio está sujeto a la aceptación de los términos y condiciones (31 usuarios online)