tablaturas, partituras y acordes para guitarra
Busca por banda/artista:
 
y/o título de la canción:
A B C D E F G H I J K L M N O P Q R S T U V W X Y Z 0 1 2 3 4 5 6 7 8 9 / Top 100 tabs
Categorías
Usuarios
usuario:
Darse de alta
password:
Artistas más visitados
Publicidad
TOP acordes y tablaturas de The cure


Estás en: Inicio > Letra T > Acordes y tablaturas de The cure > Killing an arab
Killing an arab
de The cure
Puntúa este acorde/tab:      
(0.4/5)
Reportar este acorde/tab
  Añadir a tus favoritos
  Imprimir
Intro:

-7/8-5-7----7-8/11-8-7/8-5-7-----------------------------
-------------------------------------------------------------
-------------------------------------------------------------
-------------------------------------------------------------
-----------------------------------------5-------4-------3---
-------------------------------------7-7---7-6---6-5-----


-------------------------------------------------------------
-------------------------------------------------------------
-------------------------------------------------------------
-------------------------------------------------------------
-------2-------1-------0-------------------------------------
-5-4---4-3---3-2---2-1-4-1---------------------------

Bass part starts [note: I don't particularly agree with this
bass line but it's what is in the book.  Opinions, anyone?]:

-------------------------------------------------------------
-------------------------------------------------------------
-------------------------------------------------------------
-------------------------------------------------------------
-------------------------------------------------------------
-0----0-0--0--0--0-1-1-------0----0-0--0--0--0-1-1----------- etc.

At the same time, the guitar:

-6-7-6-3-6-3-2-3-2-0-2-0---0---------------------------------
-------------------------4---4-1-4-1-0-1-0---0---------------
-------------------------------------------2---2-0-2-0---0---
-------------------------------------------------------4---4-
-------------------------------------------------------------
-------------------------------------------------------------

---------------------------------------0---0-2-0-2-3-2-3-6-3-
---------------------------1---1-4-1-4---4-------------------
---------------2-0-2-4-2-4---4-------------------------------
-2-1-2-4-5-4-5-----------------------------------------------
-------------------------------------------------------------
-------------------------------------------------------------

-6-3-7--
--------
--------
--------
--------
--------

Standing on the beach with a gun in my hand
Staring at the sea, staring at the sand
Staring down the barrel at the Arab on the ground
See his open mouth but I hear no sound 

Chorus:
I'm alive [Bass part moves up to the A string]
I'm dead 
I am the Stranger [Bass moves back down to low E string]
Killing an Arab

I can turn and walk away or I can fire the gun
Staring at the sky, staring at the sun
Whichever I choose it amounts to the same
Absolutely nothing
(Repeat chorus)

Feel the steel butt jump Smooth in my hand
Staring at the sea, staring at the sand
Staring at myself reflected in the eyes
Of the dead man on the beach
(Repeat chorus)		   
AcordesyTabs.com © 2008 Acordes y Tablaturas para guitarra. Tabs and Chords for guitar. Aviso Legal - Contacto
El uso de este sitio está sujeto a la aceptación de los términos y condiciones (27 usuarios online)