tablaturas, partituras y acordes para guitarra
Busca por banda/artista:
 
y/o título de la canción:
A B C D E F G H I J K L M N O P Q R S T U V W X Y Z 0 1 2 3 4 5 6 7 8 9 / Top 100 tabs
Categorías
Usuarios
usuario:
Darse de alta
password:
Artistas más visitados
Publicidad
TOP acordes y tablaturas de System of a down


Mr. jack
de System of a down
Puntúa este acorde/tab:      
(0.4/5)
Reportar este acorde/tab
  Añadir a tus favoritos
  Imprimir
INTRO: (o baixo começa)
|-----------------------------------------------|
|-----------------------------------------------|
|-----------------------------------------------|
|-----------------------------------------------|
|---8p7---7p5---5---5--6-5---3---3---5---5--6-5-|
|-0-----0-----0---0--------0---0---0---0--------|

INTRO: (guitar) (* - play 1st time only)
e|---------------------|
B|---------------------|
G|---------------------|
D|-5~~-6~~-5~~--8-8----|
A|-5~~-6~~-5~~--8-8----|
E|-3~~-4~~-3~~--6-6----|Várias vezes

Abafado:

e|---------------------|
B|---------------------|
G|---------------------|
D|-5~~-6~~-5~~--8-8----|
A|-5~~-6~~-5~~--8-8----|
E|-3~~-4~~-3~~--6-6----|
Hey Mr Jack...............

e|---------------------|
B|---------------------|
G|---------------------|
D|-5~~-6~~-5~~--8-8----|
A|-5~~-6~~-5~~--8-8----|
E|-3~~-4~~-3~~--6-6----|Várias vezes
In the caaaaaaaaaaaaaarrrrrrrrrrrrrr

Abafado:
e|---------------------|
B|---------------------|
G|---------------------|
D|-5~~-6~~-5~~--8-8----|
A|-5~~-6~~-5~~--8-8----|
E|-3~~-4~~-3~~--6-6----|Várias vezes
Hey Mr Jack..........


e|---------------------|
B|---------------------|
G|---------------------|
D|-5~~-6~~-5~~--8-8----|
A|-5~~-6~~-5~~--8-8----|
E|-3~~-4~~-3~~--6-6----|Várias vezes
In the caaaaaaaaaaarrrrrrrrrrrrr

INTERLUDE:
e|-------------------------------------------------|
B|-------------------------------------------------|
G|----8/7---7/5---5---5-6-5---3---3---5---5---5----|
D|-0------0-----0---0-------0---0---0---0---0------|
A|-------------------------------------------------|
E|-------------------------------------------------|Várias vezes

Mais rápido que antes
e|---------------------|
B|---------------------|
G|---------------------|
D|-5~~-6~~-5~~--8-8----|
A|-5~~-6~~-5~~--8-8----|
E|-3~~-4~~-3~~--6-6----|Várias vezes
And oh, at our heads


Abafado:
e|-------|
B|-------|
G|-------|
D|-6666--|
A|-6666--|
E|-4444--|Várias vezes
Your perfect with any car?

Mais rápido ainda:
e|----------------|
B|----------------|
G|----------------|
D|-5555-6-5777-8--|
A|-5555-6-5777-8--|
E|-3333-4-3333-6--|Várias vezes
Put your hands up, get out of the car

e|---------------------|
B|---------------------|
G|---------------------|
D|-5~~-6~~-5~~--8~~----|
A|-5~~-6~~-5~~--8~~----|
E|-3~~-4~~-3~~--6~~----|5x
FUCK YOU PIG!		   
AcordesyTabs.com © 2008 Acordes y Tablaturas para guitarra. Tabs and Chords for guitar. Aviso Legal - Contacto
El uso de este sitio está sujeto a la aceptación de los términos y condiciones (15 usuarios online)