tablaturas, partituras y acordes para guitarra
Busca por banda/artista:
 
y/o título de la canción:
A B C D E F G H I J K L M N O P Q R S T U V W X Y Z 0 1 2 3 4 5 6 7 8 9 / Top 100 tabs
Categorías
Usuarios
usuario:
Darse de alta
password:
Artistas más visitados
Publicidad
TOP acordes y tablaturas de Megadeth


Estás en: Inicio > Letra M > Acordes y tablaturas de Megadeth > Killing Road
Killing Road
de Megadeth
Puntúa este acorde/tab:      
(0.7/5)
Reportar este acorde/tab
  Añadir a tus favoritos
  Imprimir


The  Killing Road
MEGADETH
standard tuning down 1/2 step

                                       ( 2gtrs arrg. for 1)
|-----------------------------------|-----------------------------------|
|-----------------------------------|-----------------------------------|
|*---------------------------------*|*---------------------------------*|
|*---------------------------------*|*------9----10-----9----10---7~---*|
|-------7-----8-----7-----8---5~----|-------7-----8-----7-----8---5~----|
|---0-0---0-0---0-0---0-0---0-------|---0-0---0-0---0-0---0-0---0-------|
    pm.   ...   ...   ...   .           ...   ...   ...   ...   .
                                                                 _______________
Riffa                                                            | 1 (end Riffa)
|-------------------------------------------------------------------------------
|-------------------------------------------------------------------------------
|*----------------------------------------------------------------5-----------4-
|*------------------------------5---------3------3---3/--------5-----------4----
|-------7-----8------7---5----------------------------------7-----------6-------
|---0-0---0-0---0-0---8----7~-----3-2-1-1----1-1---1------8-----------7---------
    pm.   ...   ...   .           .......    ...   .      .......     .......   

Verse 1 w/Riffa x4

Again we stalk the stage
At mach speed we engage
Feeding people's rage
The big cats left it's cage

Back in the bus again
To catch another plane
This behaviors quite insane
But we do it for the fame


chorus

Riffb

         lost    my    mind                            lost all my money        
|---------------------------------- -----|--------------------------------------
|----------------------------------------|--------------------------------------
|*---------------------------------------|--------------------------------------
|*------9--------------------------------|-----9--------------------------------
|-------7------9------8------5------3--2-|-----7-------9------8------5------3--2
|---0----------7------6------3------1--0-|--0----------7------6------3------1--0
                                           pm

Verse 2 w/ Riffa x4

The road will never end
It aways starts again
Another shows around the bend 
Another long lost friend

As Faceless as the snow 
There's nothing special about the road
It's just another haul
It's just too damn long thats all


Repeat chorus

(bottom 4 strings shown only)
                                                ________________________________
                                                | 1                             
|-----------------------------------------------------------------5--------4---|
|*--------------------------------5---------3-----3---3/--------5--------4----*|
|*--------7-----8-----7---5----------------------------------7--------6-------*|
|--(0)--0---0-0---0-0---8---7~------3-2-1-1---1-1---1------8--------7----------|
   pm....   ...   ...   .           .......   ...   .      .......  ......      
   (play backeted note 2nd time only)

under solo
( # = eigth rest)                                     (play 4 times)
|-------------------------------------------------------------------|-----------
|*-----------------------------------------------------------------*|-----------
|*-#-4-----------4-#-4-#-4-#-5-#-2-#-2-----------5-------5-------4-*|-(4)-------
|----2-2-2-2-2-2-2---2---2---3---0---0-0-0-0-0-0-3---0-0-3---0-0-2--|-(2)-------
     pm...........                     .........     ...     ...

Repeat chorus x2

End


I'll post the solo later, it's a bitch to tab

		   
AcordesyTabs.com © 2008 Acordes y Tablaturas para guitarra. Tabs and Chords for guitar. Aviso Legal - Contacto
El uso de este sitio está sujeto a la aceptación de los términos y condiciones (13 usuarios online)