tablaturas, partituras y acordes para guitarra
Busca por banda/artista:
 
y/o título de la canción:
A B C D E F G H I J K L M N O P Q R S T U V W X Y Z 0 1 2 3 4 5 6 7 8 9 / Top 100 tabs
Categorías
Usuarios
usuario:
Darse de alta
password:
Artistas más visitados
Publicidad
TOP acordes y tablaturas de Megadeth


Estás en: Inicio > Letra M > Acordes y tablaturas de Megadeth > Moto Psycho
Moto Psycho
de Megadeth
Puntúa este acorde/tab:      
(0.4/5)
Reportar este acorde/tab
  Añadir a tus favoritos
  Imprimir



MEGADETH :Moto Psycho

Here are the main riffs it's not a hard song
But it's fun to play
This is my first tabbing attempt.


Opening riff played also through the verses

Riff 1:
|----------------------------------------------|
|----------------------------------------------|
|----------------------------------------------|
|----------------------------------------------|
|----------------------------------1----3--1---|
|-1-3333--1-3333--1-3333--1-3333-----3---------|
 (-P.M-) (-P.M-) (-P.M-) (-P.M-)    (-)



Riff 2: One-way ticket bit
|----------------------|----------------------|
|----------------------|----------------------|
|----------------------|----------------------|
|----------------------|----------------------|
|--6666-6666-6666-6666-|-6666-6666-6666-6666-|
|----------------------|----------------------|
                                            sl
|----------------------|-----------------------|
|----------------------|-----------------------|
|----------------------|-----------------------|
|----------------------|------------------77-|
|--3333-3333-3333-3333-|-3333-3333-3333-3355-|
|----------------------|-----------------------|
                                         sl sl


Chorus
Riff 3:
|-----------------------------------|X4|---------------|
|-----------------------------------|  |---------------|
|-----------------------------------|  |---------3-----|
|-----------------3-----------3-----|  |--5--4---3--3--|
|-----------------1-----------1-3---|  |--5--4---1--3--|
|--3-333-333-333-----3-333-33---1---|  |--3--2------1--|
  (-----P.M-----)   (--P.M---)


Well that's about it there are 2 fills first Al then Dave
I havent figured them out yet so just widdle a little bit.

Andrew tabbed this that's me! Metalrules.






		   
AcordesyTabs.com © 2008 Acordes y Tablaturas para guitarra. Tabs and Chords for guitar. Aviso Legal - Contacto
El uso de este sitio está sujeto a la aceptación de los términos y condiciones (13 usuarios online)