tablaturas, partituras y acordes para guitarra
Busca por banda/artista:
 
y/o título de la canción:
A B C D E F G H I J K L M N O P Q R S T U V W X Y Z 0 1 2 3 4 5 6 7 8 9 / Top 100 tabs
Categorías
Usuarios
usuario:
Darse de alta
password:
Artistas más visitados
Publicidad
TOP acordes y tablaturas de Temas de filmes


Top gun
de Temas de filmes
Puntúa este acorde/tab:      
(0.2/5)
Reportar este acorde/tab
  Añadir a tus favoritos
  Imprimir
     G
 E-|---------------------------------|----------------------------------|
 B-|---------------------------------|----------------------------------|
 G-|-----7---7---5-4-5-4-------------|-4-----4-5---4---4----------------|
 D-|-5-------------------7---7---5-7-|-----7---------5-----7---7--------|
 A-|---------------------------------|----------------------------------|
 E-|---------------------------------|----------------------------------|
     ^       ^       ^       ^         ^       ^       ^       ^
 
 E-|---------------------------------|----------------------------------|
 B-|---------------------------------|----------------------------------|
 G-|-----7---7---5-4-5-4-------------|-4-----4-5---4---7----------------|
 D-|-5-------------------7---7---5-7-|-----7---------5------------------|
 A-|---------------------------------|----------------------------------|
 E-|---------------------------------|----------------------------------|
     ^       ^       ^       ^         ^       ^       ^       ^
 
 then:
     C#
 E-|---------------------------------|----------------------------------|
 B-|-----9---9---7-6-7-6-------------|-6-----6-7---6---6----------------|
 G-|-6-------------------8---8---6-8-|-----8---------6-----8---8--------|
 D-|---------------------------------|----------------------------------|
 A-|---------------------------------|----------------------------------|
 E-|---------------------------------|----------------------------------|
     ^       ^       ^       ^         ^       ^       ^       ^
 
 
 E-|---------------------------------|----------------------------------|
 B-|-----9---9---7-6-7-6-------------|-6-----6-7---6---9----------------|
 G-|-6-------------------8---8---6-8-|-----8---------6------------------|
 D-|---------------------------------|----------------------------------|
 A-|---------------------------------|----------------------------------|
 E-|---------------------------------|----------------------------------|
     ^       ^       ^       ^         ^       ^       ^       ^
   Ahhh.. that feels better 

 
 then back to G, etc
 
 To do it in C you could just move everything up 5 frets.. 
 I hope I didnt confuse you all too much
 
 seeyas again
 eric		   
AcordesyTabs.com © 2008 Acordes y Tablaturas para guitarra. Tabs and Chords for guitar. Aviso Legal - Contacto
El uso de este sitio está sujeto a la aceptación de los términos y condiciones (36 usuarios online)