tablaturas, partituras y acordes para guitarra
Busca por banda/artista:
 
y/o título de la canción:
A B C D E F G H I J K L M N O P Q R S T U V W X Y Z 0 1 2 3 4 5 6 7 8 9 / Top 100 tabs
Categorías
Usuarios
usuario:
Darse de alta
password:
Artistas más visitados
Publicidad
TOP acordes y tablaturas de Deftones


Savory
de Deftones
Puntúa este acorde/tab:      
(0.4/5)
Reportar este acorde/tab
  Añadir a tus favoritos
  Imprimir
Intro & Verse
G|-----------------------------------------------------------------|
D|-----------------------------------------------------------------|
A|-----------------------------------------------------------------|
D|-5-5-5---5-5-5---5-5-5---5-5-5---1-1-1---1-1-1---1-1-1---1-1-1---|

Verse Variation
G|-----------------------------------------------------------------|
D|-----------------------------------------------------------------|
A|-----------------------------------------------------------------|
D|-5-5-5---5-5-5/13-5-5---5-5-5---1-1-1---1-1-1---1-1-1---1-1-1--|

pre Chorus
G|-----------------|
D|-----------------|
A|-----------------|
D|-5-5-5-5-5-5-5-5-|

Chorus
G|-----------------------------------------------------------------|
D|-----------------------------------------------------------------|
A|-3-3-3-3-3-3-3-3-----------------0-0-0-0-0-0-0-0-1-1-1-1-1-1-1-1-|
D|-----------------1-1-1-1-1-1-1-1---------------------------------|

Bridge
G|-------------------------------------------------------------------|
D|-------------------------------------------------------------------|
A|-------------------------------------------------------------------|
D|-5-5-5---5-5-5---5-5-5---5-5-5/13-1-1-1---1-1-1---1-1-1---1-1-1--|

Outro
G|--------------------------------------------------------------------|
D|--------------------------------------------------------------------|
A|--------------------------------------------------------------------|
D|-5-5-5---5-5-5---5-5-5---5-5-5---1-1-1---1-1-1---1-1-1---1-1--1--1--|

Song Structure:

Intro & Verse x1
Verse Variation x1
Intro & Verse x2
pre Chorus x8
Chorus x1
Intro & Verse x1
Verse Variation x1
pre Chorus x8
Chorus x1
Bridge x1
Outro x1		   
AcordesyTabs.com © 2008 Acordes y Tablaturas para guitarra. Tabs and Chords for guitar. Aviso Legal - Contacto
El uso de este sitio está sujeto a la aceptación de los términos y condiciones (32 usuarios online)