tablaturas, partituras y acordes para guitarra
Busca por banda/artista:
 
y/o título de la canción:
A B C D E F G H I J K L M N O P Q R S T U V W X Y Z 0 1 2 3 4 5 6 7 8 9 / Top 100 tabs
Categorías
Usuarios
usuario:
Darse de alta
password:
Artistas más visitados
Publicidad
TOP acordes y tablaturas de Disturbed


Believe
de Disturbed
Puntúa este acorde/tab:      
(0.5/5)
Reportar este acorde/tab
  Añadir a tus favoritos
  Imprimir
5-String bass

Tuning: tuned down to Drop D, then tuned down one half step
low to high: (Bb, Db, Ab, Db, Gb)

This tab is 100% correct, no doubts about it, see for yourself.

Intro  (0:00)
Gb------------------------------------------------------------------
Db----------------------------12------------------------------------
Ab--------55-5-5-8---------12------------55-5-5-8-------------------
Db-55-5-5---------8-8-8-12--------55-5-5---------8-8-8-0-0-0-0-0-0--
Bb------------------------------------------------------------------

Gb------------------------------------------------------------------
Db----------------------------12------------------------------------
Ab--------55-5-5-8---------12------------55-5-5-8-------------------
Db-55-5-5---------8-8-8-12--------55-5-5---------8-8-8-0-0-0-0-0-0--
Bb------------------------------------------------------------------

Verse  (0:15)
Believe...                                                 
Gb--------------------------------------------------------------
Db--------------------------12----------------------------------  X4
Ab-----------------------12-------------------------------------
Db-55-5-555-5-588-8-8-12--------55-5-555-5-588-8-8-0-0-0-0-0-0--
Bb--------------------------------------------------------------

Chorus  (0:43)
Me...              Penance                             Into
Gb-----------------------------------------------------------
Db-----------------------------------------------------------
Ab-----------------------------------------------------------
Db-8--8--8-8-10-8--3--3--3-6---6--/5-8-5-8-----/5-8-5-8------
Bb---------------------------6-------------4-4----------4-4--

Me...
Gb------------------------------------------------------------------
Db------------------------------------------------------------------
Ab------------------------------------------------------------------
Db-8--8--8-8-10-8--3--3--3-6---6--5--5-5-5----------1--1-1-1-3-3-3--
Bb---------------------------6-------------1--1-1-1-----------------

All your Believe...
Gb---------------------------------------------------------------------
Db---------------------------------------------------------------------
Ab--------------------------------------------------------------1-1-1--
Db-5--5-5-5----------1--1-1-1-3-3-1--5--5-5-5----------1--1-1-1--------
Bb----------1--1-1-1--------------------------1--1-1-1-----------------

Gb----------------------------------------------------------
Db----------------------------------------------------------
Ab----------------------------------------------------------
Db-5--5-5-5----------1--1-1-1-3-1--6-6-6-6-6-6-6-6-6-6-6-6--
Bb----------1--1-1-1----------------------------------------

(1:12)
Gb------------------------------------------------------------------
Db----------------------------12------------------------------------
Ab--------55-5-5-8---------12------------55-5-5-8-------------------
Db-55-5-5---------8-8-8-12--------55-5-5---------8-8-8-0-0-0-0-0-0--
Bb------------------------------------------------------------------

Gb------------------------------------------------------------------
Db----------------------------12------------------------------------
Ab--------55-5-5-8---------12------------55-5-5-8-------------------
Db-55-5-5---------8-8-8-12--------55-5-5---------8-8-8-0-0-0-0-0-0--
Bb------------------------------------------------------------------

Verse  (1:27)
Believe...
Gb--------------------------------------------------------------
Db--------------------------12----------------------------------  X4
Ab-----------------------12-------------------------------------
Db-55-5-555-5-588-8-8-12--------55-5-555-5-588-8-8-0-0-0-0-0-0--
Bb--------------------------------------------------------------

Chorus  (1:56)
Me...              Penance                            Into
Gb-----------------------------------------------------------
Db-----------------------------------------------------------
Ab-----------------------------------------------------------
Db-8--8--8-8-10-8--3--3--3-6---6--/5-8-5-8-----/5-8-5-8------
Bb---------------------------6-------------4-4----------4-4--

Me...
Gb------------------------------------------------------------------
Db------------------------------------------------------------------
Ab------------------------------------------------------------------
Db-8--8--8-8-10-8--3--3--3-6---6--5--5-5-5----------1--1-1-1-3-3-3--
Bb---------------------------6-------------1--1-1-1-----------------

All your Believe...
Gb---------------------------------------------------------------------
Db---------------------------------------------------------------------
Ab--------------------------------------------------------------1-1-1--
Db-5--5-5-5----------1--1-1-1-3-3-1--5--5-5-5----------1--1-1-1--------
Bb----------1--1-1-1--------------------------1--1-1-1-----------------

Gb--------------------------------------------------------------
Db--------------------------------------------------------------
Ab--------------------------------------------------------------
Db-5--5-5-5----------1--1-1-1-3-1--6-6-6-6-6-6-6-6-6-6-6-6-0~~--
Bb----------1--1-1-1--------------------------------------------

Interlude  (2:32)
Gb----------7---7---------------7---7------
Db-----7----------7--------7----------7----  X2
Ab---5---5----5-----5----5---5----5-----5--
Db-0-------------------0-------------------
Bb-----------------------------------------

Bridge  (2:47)
Reap your life...
Gb--------------------------------------------
Db--------------------------------------------
Ab-------------5-5-5-5-5-5---------------7-8--
Db-0-0-0-0-0-0-------------0-0-0-0-0-0-8------
Bb--------------------------------------------

Recognize...
Gb--------------------------------------------
Db--------------------------------------------
Ab-------------5-5-5-5-5-5---------------8----
Db-0-0-0-0-0-0-------------0-0-0-0-0-0-8---8--
Bb--------------------------------------------

Reap your life...
Gb--------------------------------------------
Db--------------------------------------------
Ab-------------5-5-5-5-5-5---------------7-8--
Db-0-0-0-0-0-0-------------0-0-0-0-0-0-8------
Bb--------------------------------------------

Recognize...
Gb--------------------------------------------
Db--------------------------------------------
Ab-------------5-5-5-5-5-5---------------8----
Db-0-0-0-0-0-0-------------0-0-0-0-0-0-8---8--
Bb--------------------------------------------

(3:02)
Reap your life...
Gb--------------------------------------------------
Db--------------------------------------------------
Ab-------------5-5-5-5-5-5-----------------7-7-8-8--
Db-0-0-0-0-0-0-------------0-0-0-0-0-0-8-8----------
Bb--------------------------------------------------

Recognize...
Gb--------------------------------------------------
Db--------------------------------------------------
Ab-------------5-5-5-5-5-5-----------------8-8------
Db-0-0-0-0-0-0-------------0-0-0-0-0-0-8-8-----8-8--

Crucified...
Gb--------------------------------------------------
Db--------------------------------------------------
Ab-------------5-5-5-5-5-5-----------------7-7-8-8--
Db-0-0-0-0-0-0-------------0-0-0-0-0-0-8-8----------
Bb--------------------------------------------------

Screams tonight...
Gb--------------------------------------------------
Db--------------------------------------------------
Ab-------------5-5-5-5-5-5-----------------8-8------
Db-0-0-0-0-0-0-------------0-0-0-0-0-0-8-8-----8-8--
Bb--------------------------------------------------

Interlude  (3:16)
Me...
Gb--------------------------------
Db----------------------12----12--
Ab--------55-5-5-8---------12-----
Db-55-5-5---------8-8-8-----------
Bb--------------------------------

Gb--------------------------------------------------------
Db-------------------------------------------12-12-12-12--
Ab--------55-5-5-88-8-8-12-12-12-10-10-10-10--------------
Db-55-5-5-------------------------------------------------
Bb--------------------------------------------------------

Gb--------------------14--12-12-12-12-12-12--------------------
Db-15--------------12-----------------------12-12-12-12-12-12--
Ab----13--13-13-12---------------------------------------------
Db-------------------------------------------------------------
Bb-------------------------------------------------------------

Gb-15----15----15-17h19---------
Db----15----15----------19------
Ab-------------------------17--
Db------------------------------
Bb------------------------------

Chorus  (3:31)
Me...              Penance                            Into
Gb-----------------------------------------------------------
Db-----------------------------------------------------------
Ab-----------------------------------------------------------
Db-8--8--8-8-10-8--3--3--3-6---6--/5-8-5-8-----/5-8-5-8------
Bb---------------------------6-------------4-4----------4-4--

Me...
Gb-------------------------------------------------------------------
Db-------------------------------------------------------------------
Ab-------------------------------------------------------------------
Db-8--8--8-8-10-8--3--3--3-6---6--5--5-5-5----------1--1-1-1--3-3-3--
Bb---------------------------6-------------1--1-1-1------------------

All your Beliefs...
Gb---------------------------------------------------------------------
Db---------------------------------------------------------------------
Ab--------------------------------------------------------------1-1-1--
Db-5--5-5-5----------1--1-1-1-3-3-1--5--5-5-5----------1--1-1-1--------
Bb----------1--1-1-1--------------------------1--1-1-1-----------------

Gb-------------------------------------------------------------------
Db-------------------------------------------------------------------
Ab------------------------------------------------------------1-1-1--
Db-5--5-5-5----------1--1-1-1-3-1--5--5-5-5----------1--1-1-1--------
Bb----------1--1-1-1------------------------1--1-1-1-----------------

(3:59)
All your beliefs
Gb--------------------------------------------
Db--------------------------------------------  X3
AB-------------3-3-3-3-3-3-------------3-3----
Db-5-5-5-5-5-5-------------6-6-6-6-6-6-----6--
Bb--------------------------------------------

Gb------------------------------
Db------------------------------
Ab------------------------------
Db-6-6-6-6-6-6-6-6-6-6-6-6-3~~--
Bb------------------------------		   
AcordesyTabs.com © 2008 Acordes y Tablaturas para guitarra. Tabs and Chords for guitar. Aviso Legal - Contacto
El uso de este sitio está sujeto a la aceptación de los términos y condiciones (36 usuarios online)