tablaturas, partituras y acordes para guitarra
Busca por banda/artista:
 
y/o título de la canción:
A B C D E F G H I J K L M N O P Q R S T U V W X Y Z 0 1 2 3 4 5 6 7 8 9 / Top 100 tabs
Categorías
Usuarios
usuario:
Darse de alta
password:
Artistas más visitados
Publicidad
TOP acordes y tablaturas de Elton john


I want love
de Elton john
Puntúa este acorde/tab:      
(0.2/5)
Reportar este acorde/tab
  Añadir a tus favoritos
  Imprimir
This is a good song, and the bass sounds really good! So I decided to tab this out.
Just follow this tab and play it when you here the bass in the song.

(00:08)
G|--------------------------------------------------------------------------|
D|--12/14-12------------------------9h10h11—12h13h14-12---------------------|
A|-----------15-14-12-------5----9----------------------15-14-12-------5----|
E|--------------------15-14---5----------------------------------15-14---5--|
rest for a while

(00:41)
G|------------4---------9-------|
D|-----9--------4---------9-----|
A|--10------2-----2---7-----7--|
E|--------3---------------------|

G|------------------------------------------------------------------------------------9-----|
D|-----------------------------------------------234-------------------9/119-9---------9---|
A|--------------7-7---7--4--4-9--345--5-5---3-4------2/4--9--9-----9------------567-----7-|
E|--5--5-2--2-0-----0---------------------5----------------------567------------7-----------|

G|----------------------------------------------------------------------------|
D|--------------------------7-------------------------------------------------|
A|---------------12--12-12----7------5--5-4--4-9-------------5h6h7--7-7-7/9-|
E|--5--5-5--5/12----------------5--5--------------5-6-7--7-7------------------|

G|-------------------------------|
D|--12/14-12---------------------|
A|-----------15-14-12-------5----|
E|--------------------15-14---5--|
rest for a while

(01:42)
G|----------------------------------5h7-5--------------------------------------------------|
D|---------------------3-4-6-7------------7-5----------------------------------------------|
A|--------------3-4--4---------5--5-----------7-5-4--4-8--8-9--9-9----------9/14-16-17-19--|
E|--5/0--0-0--0----------------------------------------------------9-7--7-7----------------|

G|---------------------------------------------------------------------------------------|
D|--------------------------7--------------3-4—4-------------1-2-2-----------------------|
A|---------------12--12-12----7------5-4--4-4----4--2--2-2--2-2----2---5---3-3-3-3-5-5-7-|
E|--5--5-5--5/12----------------5--5---------------2-----------------0---5---------------|

G|----------------------------------------------------------------------------|
D|-------------------------------------------------------------12/14-12-10----|
A|--8-8-8----8-8-8-8----------------------------------5/7-5----------------10-|
E|--------6h8--------8-8-8-8-8-8-8-8-3-3-3-0h1-3-3-3-----8-8-8----------------|

G|---------------------------------------------------------------------------------------7--|
D|--------------------------------------------------------------------------------------7---|
A|--3-3-3--123-3-3--------------------------5---7--------------------4--4------5--5-5-------|
E|------------------456-6--6-6--6-5--5-5--5--------5--5-2--0--0-0--0------2--2--------------|

G|------------------------------------------------------------------|
D|-------4--------------4-2-----------------------------------------|
A|--4--4---2/4------------4-2--2-2------14---16-17----17/19-------|
E|---------------2--2-2---------------2/14---14------14--------12--|
rest for a while

(03:29)
G|--567----------------------------------9--------------5------------------------------------|
D|--------11-----------------0-2--2-2-----9---------------5----------------------------------|
A|------5----9-8-6-4-2--2-2------------7---7--3-3-3-3-3-----5-------------10-12-----12h14p12-|
E|-------------------------------------------------------------5--5-5--12--------12----------|

G|--------------------------------------------------|
D|--------------------------------------------------|
A|-----12--5--5-5--5-4--4-9--------5-7----7--3---5--|
E|--12----------------------7--7-7------5-----------|

G|---------------------------------------------|
D|---------11--12-13-14-12---------------------|
A|--12--9------------------15-14-12-------5----|
E|----------------------------------15-14---5--|

This is my third tab, please rate this tab.		   
AcordesyTabs.com © 2008 Acordes y Tablaturas para guitarra. Tabs and Chords for guitar. Aviso Legal - Contacto
El uso de este sitio está sujeto a la aceptación de los términos y condiciones (36 usuarios online)