tablaturas, partituras y acordes para guitarra
Busca por banda/artista:
 
y/o título de la canción:
A B C D E F G H I J K L M N O P Q R S T U V W X Y Z 0 1 2 3 4 5 6 7 8 9 / Top 100 tabs
Categorías
Usuarios
usuario:
Darse de alta
password:
Artistas más visitados
Publicidad
TOP acordes y tablaturas de 3 doors down


Estás en: Inicio > Letra 3 > Acordes y tablaturas de 3 doors down > When i'm gone
When i'm gone
de 3 doors down
Puntúa este acorde/tab:      
(0.8/5)
Reportar este acorde/tab
  Añadir a tus favoritos
  Imprimir
    Am                            C         G
e|------------------------------------------3---|
B|--------0h1-----1p0---0h1-----------0h1---3---|
G|------2-----2-------2-----2-------------0-0---|
D|----2---------2-------------------2-------0---|
A|--0-------------------------0-2-3---------2---|
E|------------------------------------------3---|
Intro Pt. 1

    Am                            C         G
e|------------------------------------------3---|
B|--------0h1-----3p1---0h1-----------0h1---3---|
G|------2-----2-------2-----2-------------0-0---|
D|----2---------2-------------------2-------0---|
A|--0-------------------------0-2-3---------2---|
E|------------------------------------------3---|
Intro Pt. 2

    Am         C  G
e|--0----------0--3---|
B|--1----------1--3---|
G|--2----------0--0---|
D|--2----------2--0---|
A|--0---0-2-3--3--2---|
E|----------------3---|
There's a... may never see... (Verse)

    Am              Am
e|----------------------------------|
B|--------0h1---3---------0h1---0---|
G|------2---------------2-----------|
D|----2---------------2-------------|
A|--0---------0-----0---------0-----|
E|----------------------------------|
Maybe I'm just blind...

e|----------------------------------|
B|--------0h1---3---------0h1---0---|
G|------2---------------2-----------|
D|----2---------------2-------------|
A|--0---------0-----0---------0-----|
E|----------------------------------|
Maybe I'm just blind...
              v ^    v ^
e|---------------------------------------------------------|
B|---------------------------------------------------------|
G|------------2-2-xx-2-2-xx----------5-5-xx----------------|
D|------------2-2-xx-2-2-xx----------5-5-xx-5-5-xx---------|
A|---2h3p2p0--0-0-xx-0-0-xx-2h3p2p0--7-7-xx-5-5-xx-2h3p2p0-|
E|------------------------------------------3-3-xx---------|
So hold me when I'm here... (Chorus)

Guitar 1                   Guitar 2    		      Guitar 3
e|-----------------------| e|-----------------------| e|-----------------------|
B|-----------------------| B|-----------------------| B|-----------------------|
G|-----------------------| G|-----------------------| G|-----------------------|
D|----7----7/9/10-xx-5---| D|----7----7/9/10-xx-5---| D|-----------9h10--------|
A|----------------xx-----| A|----7----7/9/10-xx-3---| A|--10h12-10-------10----|
E|----5----5/7/8--xx-3---| E|----5----5/7/8--xx-3---| E|-----------------------|

Guitar 1                   Guitar 2    		      Guitar 3
e|-----------------------| e|-----------------------| e|------------------------|
B|-----------------------| B|-----------------------| B|------------------------|
G|-----------------------| G|-----------------------| G|------------------------|
D|----7----7/9/10-xx-5---| D|----7----7/9/10-xx-5---| D|-------9h10-------------|
A|----------------xx-----| A|----7----7/9/10-xx-3---| A|--/12-------12p10----10-|
E|----5----5/7/8--xx-3---| E|----5----5/7/8--xx-3---| E|------------------12----|
After 1st Chorus                                                          pm

e|-----------------------------------|
B|-----------------------------------|
G|-----------------------------------|
D|--7-xx-9/10-xx-10/12-xx-12/14/12---|
A|--7-xx-9/10-xx-10/12-xx-12/14/12---|
E|--5-xx-7/8--xx--8/10-xx-10/12/10---|
Breakdown Pt. 1

e|-------------------------------------|
B|-------------------------------------|
G|-------------------------------------|
D|--7-xx-9/10-xx-10/12-xx-5-4-5--7*----|
A|--7-xx-9/10-xx-10/12-xx-5-4-5--7*----|
E|--5-xx-7/8--xx--8/10-xx-3-2-3--5*----|
Breakdown Pt. 2           pm...

START OF SOLO........
e|---------------------------------------------|
B|---------------------------------------------|
G|---------------------------------------------|
D|---------------------------------------------|
A|--/12-12-12p10-10h12--12p10----10------------|
E|----------------------------12----12-11-10---|

e|-------------------------------------------------|
B|-------------------------------------------------|
G|-------------------------------------------------|
D|--------------------------------------10---------|
A|--15-15--0--0-3-0-0---0---0-/12-12-12----12-12---|
E|--------------------3---3------------------------|

e|----------------------------------------------|
B|----------------------------------------------|
G|----------------------------------------------|
D|-----------9h10p9----9-----9h10h9----12-------|
A|--12-12-12--------12---12~--------12----10~---|
E|----------------------------------------------|

e|----------------------------------------|
B|----------------------------------------|
G|-----------12-12------------------------|
D|--12h14-14-------14-14-14-14-14-14-14---|
A|----------------------------------------|
E|----------------------------------------|

e|----------------------------------------------------|
B|----------------------------------------------------|
G|--12-12-12-12-12-12-12-12-16-16-16-16-16-16-16-16---|
D|----------------------------------------------------|
A|----------------------------------------------------|
E|----------------------------------------------------|

e|------------15h17-17*---|
B|---17-17-17-------------|
G|------------------------|
D|------------------------|
A|------------------------|
E|------------------------|
...........END OF SOLO
**GUITAR 2 PLAYS CHORUS AS BACKUP**

Right after the last chorus...
Guitar 1                   Guitar 2    		     
e|-----------------------| e|-----------------------|
B|-----------------------| B|-----------------------|
G|-----------------------| G|-----------------------|
D|----7----7/9/10-xx-5---| D|----7----7/9/10-xx-5---|
A|----------------xx-----| A|----7----7/9/10-xx-3---|
E|----5----5/7/8--xx-3---| E|----5----5/7/8--xx-3---|

Guitar 2 (Guitar 1 plays the same as above)
e|----------------------------|
B|----------------------------|
G|----------------------------|
D|----7----7/9/10-xx-5---7*---|
A|----7----7/9/10-xx-3---7*---|
E|----5----5/7/8--xx-3---5*---|
End of song.

* = Let ring
v = Downstroke
^ = Upstroke

Thereís a mellow world inside of me
That you may never see
Thereís secrets in this life that I canít hide
Somewhere in this darkness 
Thereís a light that I canít find
Maybe itís too far away
Or maybe Iím just blind

  Hold me when Iím here
  Love me when Iím wrong
  Hold me when Iím scared
  And love me when Iím gone

  Everything I am
  Is everything you need
  I'm possibly the one you wanted me to be

  Iíll never let you down
  Even if I could
  I'd give up everything
  If only for your good

  So hold me when Iím here
  Love me when Iím wrong
  Hold me when Iím scared
  I wonít always be there
  So love me when Iím gone

When your education X-ray
Can not see under my skin
I wonít tell you a damn thing
That I could not tell my friends
I'm roaming in this darkness
Iím alive but Iím alone
Part of me is fighting this
But part of me is gone		   
AcordesyTabs.com © 2008 Acordes y Tablaturas para guitarra. Tabs and Chords for guitar. Aviso Legal - Contacto
El uso de este sitio está sujeto a la aceptación de los términos y condiciones (22 usuarios online)