tablaturas, partituras y acordes para guitarra
Busca por banda/artista:
 
y/o título de la canción:
A B C D E F G H I J K L M N O P Q R S T U V W X Y Z 0 1 2 3 4 5 6 7 8 9 / Top 100 tabs
Categorías
Usuarios
usuario:
Darse de alta
password:
Artistas más visitados
Publicidad
TOP acordes y tablaturas de Evanescence


Going under
de Evanescence
Puntúa este acorde/tab:      
(0.3/5)
Reportar este acorde/tab
  Añadir a tus favoritos
  Imprimir
Tuning: tuned down two and a half steps
low to high: (B,E,A,D)

2nd and 3rd Verses  (0:25, 1:23)
D-------------
A-------------  X4
E-------------
B-0-0--0-0-0--

D-------------
A-------------  X4
E-------------
B-0-0--0-0-0--

Chorus  (0:58, 1:56, 2:56)
D------------------------------------------------------------------
A---------------5-5-5-----------------------------5-5-5-4----------
E-----7~p0-3-3---------5-5-3-2----7--7~-3-3---------------5-5-3-2--
B-0-0--------------------------0------------3-3-3------------------

D--------------------------------------------------------------------------r--
A----------------3p0-5-5-5-5-------------------------------5---------------e--
E----7-7-7-0-3-3-------------0-5-5-3-2---7--7~p0-3-3-2-0--------5-5-5-3-2--s--
B-0------------------------------------0-----------------3---3-------------t--

D--------------------------------------------------------------------------
A----------------3p0-5-5-5-5-------------------------------5---------------
E----7-7-7-0-3-3-------------0-5-5-3-2---7--7~p0-3-3-2-0--------5-5-5-3-2--
B-0------------------------------------0-----------------3---3-------------

Bridge  (2:18)
D----------------------------------
A---------------2------------------
E-3-3-3-3-3-3-3---3-2-2-2-2-2-2-2--
B----------------------------------

D-----------------------------------------------------------------------
A-----------------------------------------------------------------------
E--------------------------------2-2-3-3-3-3-3-3-3-3-2-2--2-2-2--2-2-2--
B-0-0-0-0-0-0-0-0--0-0-0-0-0-0-0----------------------------------------

Guitar Solo  (2:34)
D------------------------------------------------------------------
A---------------5-5-5-----------------------------5-5-5-4----------
E-----7~p0-3-3---------5-5-3-2----7--7~-3-3---------------5-5-3-2--
B-0-0--------------------------0------------3-3-3------------------

3rd Pre-Chorus
D------------------------------------------------------------------
A---------------5-5-5-----------------------------5-5-5-4----------
E-----7~p0-3-3---------5-5-3-2----7--7~-3-3---------------5-5-3-2--
B-0-0--------------------------0------------3-3-3------------------

D-----------------------------------------------------
A-----------------------5-5-5-4-----------------------
E----7--7~-3--3------------------5-5-3-2--7-7--2------
B-0-------------3-3--3---------------------------0-0--		   
AcordesyTabs.com © 2008 Acordes y Tablaturas para guitarra. Tabs and Chords for guitar. Aviso Legal - Contacto
El uso de este sitio está sujeto a la aceptación de los términos y condiciones (32 usuarios online)