tablaturas, partituras y acordes para guitarra
Busca por banda/artista:
 
y/o título de la canción:
A B C D E F G H I J K L M N O P Q R S T U V W X Y Z 0 1 2 3 4 5 6 7 8 9 / Top 100 tabs
Categorías
Usuarios
usuario:
Darse de alta
password:
Artistas más visitados
Publicidad
TOP acordes y tablaturas de Faith no more


Estás en: Inicio > Letra F > Acordes y tablaturas de Faith no more > A small victory
A small victory
de Faith no more
Puntúa este acorde/tab:      
(0.9/5)
Reportar este acorde/tab
  Añadir a tus favoritos
  Imprimir
   w     E    s s s e    s s s s s e   E    s s s e    s s s q  5x
---r-||------------------------------|--------------------------||
4:-e-||*-7~~~-------7~~~-------7-7---|-7~~~-------7~~~-------4-*||
4:-s-||*------0-0-0------0-0-0-----0-|------0-0-0------0-0-0---*||
---t-||------------------------------|-----------------------2--||
       1st Verse

  E    s e E    s e s s e   E    s e E    s e e e   w  +w   w   h  Q e
|-------------------------|-----------------------|---|---|---|--------|
|-7~~~-----7~~~-----7-7---|-7~~~-----7~~~---------|-9-|-9-|-7-|-11/9-|
|------0-0------0-0-----0-|------0-0------0-0-----|-7-|-7-|-5-|-9----|
|-------------------------|-------------------2-5-|-0-|-0-|---|--------|

    E    s s s e    s s s s s e   E    s s s e    s s s q  5x
||------------------------------|--------------------------||
||*-7~~~-------7~~~-------7-7---|-7~~~-------7~~~-------4-*||
||*------0-0-0------0-0-0-----0-|------0-0-0------0-0-0---*||
||------------------------------|-----------------------2--||
  2nd Verse

  E    s e E    s e s s e   E    s e E    s e e e   w  +w   w   h  Q e
|-------------------------|-----------------------|---|---|---|--------|
|-7~~~-----7~~~-----7-7---|-7~~~-----7~~~---------|-9-|-9-|-7-|-11---|
|------0-0------0-0-----0-|------0-0------0-0-----|-7-|-7-|-5-|-9--0-|
|-------------------------|-------------------2-5-|-0-|-0-|---|--------|

    s e s s s e s e s s s s   s e s s s e e e e e   s e s s s e s e s s s e
||--------------------------|---------------------|-------------------------|
||*-------------------------|---------------------|-------------------------|
||*-------------------------|---------------------|-------------------------|
||--5-5-5-5-5-3-5-5-5-5-5-3-|-5-5-5-5-5-3-5-3-5-|-5-5-5-5-5-3-5-5-5-5-5-3-|
    Chorus

  s e s s s e e e e s s   s s s s s s s s s s s s e s s
|-----------------------|-----r---r---r---r-------------|
|-----------------------|-----e---e---e---e-------------|
|-------------------5/6-|-7---s---s---s---s---------5-7-|
|-5-5-5-5-5-3-5-3-5-----|---0-t-0-t-0-t-0-t-0-3p0-5-----|

  s s s s s s s s s s s s e s s   s s s s s s s s s s s s e    e
|-----r---r---r---r-------------|-----r---r---r---r-----------------|
|-----e---e---e---e-------------|-----e---e---e---e-----------------|
|-7---s---s---s---s---------5-6-|-7---s---s---s---s-----------------|
|---0-t-0-t-0-t-0-t-0-3p0-5-----|---0-t-0-t-0-t-0-t-0-3p0-5~~~-5~~~-|

    E    s s s e    s s s s s e   E    s s s e    s s s q  5x
||------------------------------|--------------------------||
||*-7~~~-------7~~~-------7-7---|-7~~~-------7~~~-------4-*||
||*------0-0-0------0-0-0-----0-|------0-0-0------0-0-0---*||
||------------------------------|-----------------------2--||
  3rd Verse

  E    s e E    s e s s e   E    s e E    s e e e   w  +w   w   h  Q e
|-------------------------|-----------------------|---|---|---|--------|
|-7~~~-----7~~~-----7-7---|-7~~~-----7~~~---------|-9-|-9-|-7-|-11-7-|
|------0-0------0-0-----0-|------0-0------0-0-----|-7-|-7-|-5-|-9----|
|-------------------------|-------------------2-5-|-0-|-0-|---|--------|

    s e s s s e s e s s s s   s e s s s e e e e e   s e s s s e s e s s s s
||--------------------------|---------------------|-------------------------|
||*-------------------------|---------------------|-------------------------|
||*-------------------------|---------------------|-------------------------|
||--5-5-5-5-5-3-5-5-5-5-5-3-|-5-5-5-5-5-3-5-3-5-|-5-5-5-5-5-3-5-5-5-5-5-3-|
  Chorus

  s e s s s e e e e s s     s s s s s s s s s s s s e s s  3x
|-----------------------||------r---r---r---r--------------||
|-----------------------||*-----e---e---e---e-------------*||
|-------------------5/6-||*-7---s---s---s---s---------5-6-*||
|-5-5-5-5-5-3-5-3-5-----||----0-t-0-t-0-t-0-t-0-3p0-5------||
                          Guitar Solo

  s s s s s s s s s s s s s s s s   s s s s s s s s s s s s s s s s
|-----r---r---r---r---------------|-----r---r---r---r---------------|
|-----e---e---e---e-----------5-6-|-7---e---e---e---e-----------5-6-|
|-7---s---s---s---s---------------|---0-s-0-s-0-s-0-s-0-3p0-5-0-----|
|---0-t-0-t-0-t-0-t-0-3p0-5h6-----|-----t---t---t---t---------------|

  s s s s s s s s s s s s e s s   s s s s s s s s s s s s E s
|-----r---r---r---r-------------|-----r---r---r---r-----------|
|-7---e---e---e---e---------5-6-|-7---e---e---e---e-----------|
|---0-s-0-s-0-s-0-s-0-3p0-5-----|---0-s-0-s-0-s-0-s-0-3p0-5-6-|
|-----t---t---t---t-------------|-----t---t---t---t-----------|

    s s s s s s s s s s s s e s s  3x s s s s s s s s s s s s s s
||---------------------------------||-------------------------7-9-|
||*-------------------------------*||-------------------------7-9-|
||*-7/8-------7/8-------7-----*||-7/8-------7/8-------5-7-|
||--------0-0-0-------0-0-0---0-0--||-------0-0-0-------0-0-0-----|

    s s s s s s s s s s s s e s s  4x s e s s s e s e s s s e
||---------------------------------||-------------------------|
||*-------------------------------*||-------------------------|
||*-7/8-------7/8-------7-----*||-----------------------5-|
||--------0-0-0-------0-0-0---0-0--||-5-5-5-5-5-3-5-5-5-5-5---|

  s e s s s e e e e e   s e s s s e s e s s s e   s e s s s e e e e s s
|---------------------|-------------------------|-----------------------|
|---------------------|-------------------------|-----------------------|
|---------------------|-----------5-----------5-|-----------5-------5-6-|
|-5-5-5-5-5-3-5-3-5-|-5-5-5-5-5---5-5-5-5-5---|-5-5-5-5-5---5-3-5-----|

    s s s s s s s s s s s s e s s  4x s e s s s e s e s s s e              
||------r---r---r---r--------------||-------------------------|
||*-----e---e---e---e-------------*||-------------------------|
||*-7---s---s---s---s---------5-6-*||-----------------------5-|
||----0-t-0-t-0-t-0-t-0-3p0-5------||-5-5-5-5-5-3-5-5-5-5-5---|

  s e s s s e e e e e   s e s s s e s e s s s e   s e s s s e e e e s s
|---------------------|-------------------------|-----------------------|
|---------------------|-------------------------|-----------------------|
|---------------------|-----------5-----------5-|-----------5-------5-6-|
|-5-5-5-5-5-3-5-3-5-|-5-5-5-5-5---5-5-5-5-5---|-5-5-5-5-5---5-3-5-----|

    s s s s s s s s s s s s e s s  3x s s s s s s s E e e e   w
||------r---r---r---r--------------||-----r---r---r---------|----|
||*-----e---e---e---e-------------*||-----e---e---e-----7-9-|/11-|
||*-7---s---s---s---s---------5-6-*||-7---s---s---s-7-9-----|----|
||----0-t-0-t-0-t-0-t-0-3p0-5------||---0-t-0-t-0-t---------|----|

 +Q  e e e e e    Q s s h  +Q e e e e e   H  s E   +Q  e e e e e    Q h e
|---------------|---------|-------------|---------|---------------|-------|
|-11-----7-9-11-|-9-7/9-|-7-7-----7-9-|/11---11-|-11----7-9/11-|-9-7---|
|----7-9--------|---------|-----7-9-----|----9----|----7-9--------|-----9-|
|---------------|---------|-------------|---------|---------------|-------|

 +q e q e e e     E    s s s e    s s s s s e   E    s s s e    s s s q  3x
|-------------||------------------------------|--------------------------||
|---7---------||*-7~~~-------7~~~-------7-7---|-7~~~-------7~~~-------4-*||
|-9---7-9/7-||*------0-0-0------0-0-0-----0-|------0-0-0------0-0-0---*||
|-------------||------------------------------|-----------------------2--||

  E    s H   w   w   w
|--------r-|-r-|-r-|-r-||
|-7~~~---e-|-e-|-e-|-e-||
|------0-s-|-s-|-s-|-s-||
|--------t-|-t-|-t-|-t-||




================================================================================
1. Credits

All songs by Faith No More except Midnight Cowboy:  by John Barry, 
Performed by Faith No More.  From the album Angel Dust and the maxi-
single Songs To Make Love To.  (C) 1969 EMI U Catalog Inc./Barwin 
Music, Inc. This Arrangement (C) 1992  EMI U Catalog Inc./Barwin 
Music, Inc. (ASCAP)

All transcriptions by Joe White except "A Small Victory" which appeared 
in Guitar For The Practicing Musician, Sept. 1992.  This transcription 
was re-tabbed, as the origional had too many nuances that needn't be
transcribed.

Joe White claims no copyright on these tabs, the copyright belongs to 
Faith No More's publishing company.  Feel free to use these files, edit 
them, etc.  Just give credit to me, like this:

transcribed by Joe White (barlitone@aol.com)

================================================================================
2.  Tablature Explanation
  ===========================================================================
  ==                               All Songs                               ==
  ==             created with a demo version of BUCKET O' TAB              ==
  ==                tablature creation software for Windows                ==
  ==                    For more info email gse@his.com                    ==
  ==                                                                       ==
  ==                                                                       ==
  ==                         TABLATURE EXPLANATION                         ==
  ===========================================================================

  ----------                ----------                ----t---
  ----5h8--- Hammeron       ----(8)--- Ghost          ----6--- Tap
  ----------                ---------- Note           --------
  ----5p8--- Pulloff        ----------                --------

  ----------                ----------                -----p--
  ----5/8--- Slide Up       -----x---- Dead           -----7-- Pop
  ----------                ---------- Note           --s-----
  ----58--- Slide Down     ----------                --5----- Slap 

  ----------                ||------|| Repeat         --------
  ----5~~~-- Vibrato        ||*----*||                ---5^--- Bend
  ----------                ||*----*||                -------- (up, one step)
  ----------                ||------||                --------
                                                         (1)
                             tr~~
  ----------                ---------- Trill to       --------
  -4:------- Time           ---------- note in        ---5^--- Bend
  -4:------- Signature      -0(1)----- parenthesis    -------- (up, 1/2 step)
  ----------                ----------                --------
                                                       (1/2)

Rhythm:
  w = whole note            W = dotted whole
  h = half note             H = dotted half
  q = quarter note          Q = dotted quarter
  e = eighth note           E = dotted eighth
  s = sixteenth note        S = dotted sixteenth
  t = 32nd note             T = dotted 32nd
  x = 64th note             X = dotted 64th
  ^ = triplet               + = tie to previous note		   
AcordesyTabs.com © 2008 Acordes y Tablaturas para guitarra. Tabs and Chords for guitar. Aviso Legal - Contacto
El uso de este sitio está sujeto a la aceptación de los términos y condiciones (41 usuarios online)