tablaturas, partituras y acordes para guitarra
Busca por banda/artista:
 
y/o título de la canción:
A B C D E F G H I J K L M N O P Q R S T U V W X Y Z 0 1 2 3 4 5 6 7 8 9 / Top 100 tabs
Categorías
Usuarios
usuario:
Darse de alta
password:
Artistas más visitados
Publicidad
TOP acordes y tablaturas de Faith no more


Estás en: Inicio > Letra F > Acordes y tablaturas de Faith no more > Everything's ruined
Everything's ruined
de Faith no more
Puntúa este acorde/tab:      
(0.4/5)
Reportar este acorde/tab
  Añadir a tus favoritos
  Imprimir
The Piano and Bass in this song go hand-in-hand!!
It's one of the many kick arse songs by Faih No More,
and it's so bloody easy!!
HAVE FUN: & Smile:)

Intro:(with just piano....i added this bass line)
G|---12-------10--9-|--12-------10--9-|---9----------------------|
D|*-----------------|-----------------|-----------12--10--9-----*|
A|*-----------------|-----------------|--------------------12---*|
E|------------------|-----------------|--------------------------|

Start with:
G|------------------|
D|------------------|
A|------------------|
E|--12\\\-|
Guitar Prolude:
G|---------------------------------|--------------------------------|
D|*--------------------------------|-------------------------------*|
A|*--------------------------------|-------------------------------*|
E|--3-3--3-3--3-3--3-3--3-3--/7--7-|-5-5--5-5--5-5--5-5--5-5--7-5-7-|

Verse:(You look so happy) Slap all of this:-
G|--------x---------------|-------x---------------|-------x---------------
D|*---------------------4-|---------------------4-|---------------------4-
A|*-----------------------|-----------------------|-----------------------
E|--8\x---0-2--0-2--2---|-8\x---0-2--0-2--2---|-8\x---0-2--0-2--2---
        s p  h    h     p       s p  h    h   s p       s p  h    h   s p

|-------x---------------|
|----------------------*|Repeat
|----------------------*| (5x)
|-8\x---0-2--0-2--2-0-|
        s p  h    h    h

Insert #1: (A bouncing little baby)
G|----------------------------------|
D|*--------------------------------*|(Skip second time(to chorus))
A|*-9--7---------------7-9-7-------*|
E|--------------5-7--9-------9-5-2-|

Chorus:
G|--------------|----|-------------------|----|
D|*------------*|----|*-----------------*|----|
A|*-5--5--3----*|(4x)|*-12--12--10------*|(4x)|
E|---------5-3--|----|-------------12-10-|----|

           ^Back To Verse^ (skip second time*(to insert #2)

Insert #2: (A penny won't do)
G|----------------------|----------------------|----------------------
D|*---------------------|----------------------|----------------------
A|*---------------------|----------------------|----------------------
E|-2-2--2-2--2-2--2-2---|-3-3--3-3--3-3--3-3---|-5-5--5-5--5-5--5-5---

|-----------------------|
|----------------------*|
|----------------2---2-*|
|-5-5--5-5--5-5----5----|

           ^Guitar Prolude^
           ^Guitar Prolude^(Muted)
           ^Chorus^(Guitar Solo)
           ^Chorus^(Out) Repeat(2X)
Ending:
G|---------------------|
D|---------------------|
A|----------------2//--|
E|-3-3--3-3--3-3-------|		   
AcordesyTabs.com © 2008 Acordes y Tablaturas para guitarra. Tabs and Chords for guitar. Aviso Legal - Contacto
El uso de este sitio está sujeto a la aceptación de los términos y condiciones (27 usuarios online)