tablaturas, partituras y acordes para guitarra
Busca por banda/artista:
 
y/o título de la canción:
A B C D E F G H I J K L M N O P Q R S T U V W X Y Z 0 1 2 3 4 5 6 7 8 9 / Top 100 tabs
Categorías
Usuarios
usuario:
Darse de alta
password:
Artistas más visitados
Publicidad
TOP acordes y tablaturas de Faith no more


Estás en: Inicio > Letra F > Acordes y tablaturas de Faith no more > Underwater love
Underwater love
de Faith no more
Puntúa este acorde/tab:      
(0.5/5)
Reportar este acorde/tab
  Añadir a tus favoritos
  Imprimir
   q    e e e e e e e e   e e e e e e e e   e e e e e e e e   e e e e q q       
------|-----------------|-----------------|-----------------|-------------------
4:----|-----------------|-----------------|-----------------|-------------------
4:----|-----------------|-----------------|-----------------|-------------------
---12|-0-0-0-0-0-0-0-0-|-2-2-2-2-2-2-0-2-|-3-3-3-3-3-3-0-3-|-5-5-5-5-5/17-----
       Intro

    e e e e e e e e   e e e e e e e e  3x e e e e e e e e   e e e e s s s s s   
||------------------|------------------||-----------------|---------------------
||*-----------------|-----------------*||-----------------|---------------------
||*-----------------|-----------------*||-----------------|-------------5---5---
||--0-0-0-0-0-0-0-0-|-7-7-7-7-7-7-7-7-||-0-0-0-0-0-0-0-0-|-7-7-7-7-7-x---7-----
    1st Verse

s s s   e e e e e e e e   e e e e e e e e   e e e e e e e e   e e e e e e s E   
------|-----------------|-----------------|-----------------|-------------------
------|-----------------|-----------------|-----------------|-------------------
--5h7-|-----------------|-----------------|-----------------|-------------------
7-----|-0-0-0-0-0-0-0-0-|-7-7-7-7-7-7-7-7|-0-0-0-0-0-0-0-0-|-7-7-7-7-7-7-5h7--

   e e e e e e e s s   e e e s s s e s s e s   h h   Q s s s e s s e s   H+e    
-|-------------------|-----------------------|-----|-------------------|--------
-|-------------------|-------------9-----8---|-----|---------9-----8---|--------
-|-------------------|-----------------------|-----|-------------------|--------
-|-0-0-0-0-0-0-0-5h6-|-7-7-7-0h7-7---7-6---6-|-5-3-|-7-0h7-7---7-6---6-|-5-5----
   Pre-chorus

e   s  s  s  s  s  s  s  s  s  s  s  s  q    e e e e e e e e   e e e e e e e    
--|----------------------------------------|-----------------|------------------
--|----------------------------------------|-----------------|------------------
--|----------------------------------------|-----------------|------------------
5/|-17-17-17-17-17-17-17-17-17-17-17-17-17|-0-0-0-0-0-0-0-0-|-7-7-7-7-7-7-7----
                                             2nd Verse

e   e e e e e e e e   e e e e s s s s s s s s   e e e e e e e e   e e e e e e   
--|-----------------|-------------------------|-----------------|---------------
--|-----------------|-------------------------|-----------------|---------------
--|-----------------|-------------5---5---5h7-|-----------------|---------------
7-|-0-0-0-0-0-0-0-0-|-7-7-7-7-7-x---7---7-----|-0-0-0-0-0-0-0-0-|-7-7-7-7-7-7---

e e   e e e e e e e e   e s s s s s s s s E    E   e e e e e e e s s   e e e    
----|-----------------|---------------r----------|-------------------|----------
----|-----------------|-------9-----7-e---9~~~-9|-------------------|----------
----|-----------------|---------------s----------|-------------------|----------
7-7-|-0-0-0-0-0-0-0-0-|-7-7-7---7-7---t-7--------|-0-0-0-0-0-0-0-5h6-|-7-7-7----

s s s e s s e s   h h   Q s s s e s s e s   H+e e   s  s  s  s  s  s  s  s      
----------------|-----|-------------------|-------|-----------------------------
------9-----8---|-----|---------9-----8---|-------|-----------------------------
----------------|-----|-------------------|-------|-----------------------------
0h7-7---7-6---6-|-5-3-|-7-0h7-7---7-6---6-|-5-5-5/|-17-17-17-17-17-17-17-17-----

s  s  s  s  q      e s s s s s e s s E e   e    s s s s s e s s e s s s   e     
---------------||------------------------|------------------------------|-------
---------------||*-------2-----5-----2---|----------4-----5-----4-----4-|-------
---------------||*-----------------------|------------------------------|-------
17-17-17-17-17||--0-x-x---x-x---x-x---0-|-2~~~-x-x---x-x---x-x---x-2---|-3~~~--
                   Chorus

    s s s s s e s s E e   e    s s s s s e s s s e e     2x H +s  s s  s        
------------------------|------------------------r-------||---------------|-----
--------2-----5-----2---|----------4-----7-----4-e-4~~~-*||-14-14---------|-----
------------------------|------------------------s------*||-------0-12-13-|-----
~~~-x-x---x-x---x-x---0-|-5~~~-x-x---x-x---x-x---t-------||---------------|-----
                                                            Bridge

H +s  s s s   H+s s s s   h q+s e s   H+e s s   e e e s s s e s e s   h h   Q   
------------|-----------|-----------|---------|---------------------|-----|-----
------------|-----------|-----------|---------|-------------9---8---|-----|-----
14-14-0-5-6-|-7-7-------|-----------|---------|---------------------|-----|-----
------------|-----0-5-6-|-7-3-3-3-|-0-0-5h6-|-7-7-7-0h7-7---7---6-|-5-3-|-7---

s s s e s s e s   H+e e   s  s  s  s  s  s  s  s  s  s  s  s  q      e s s s    
----------------|-------|----------------------------------------||-------------
------9-----8---|-------|----------------------------------------||*-------2----
----------------|-------|----------------------------------------||*------------
0h7-7---7-6---6-|-5-5-5/|-17-17-17-17-17-17-17-17-17-17-17-17-17||--0-x-x------
                                                                     Chorus

s s e s s E e   e    s s s s s e s s e s s s   e    s s s s s e s s E e   e     
--------------|------------------------------|--------------------------|-------
----5-----2---|----------4-----5-----4-----4-|----------2-----5-----2---|-------
--------------|------------------------------|--------------------------|-------
x-x---x-x---0-|-2~~~-x-x---x-x---x-x---x-2---|-3~~~-x-x---x-x---x-x---0-|-5~~~--

    s s s s s e s s s e e     4x s  e  s  s  e  s  s  e  s  s  e  s    q  h E   
----------------------r-------||-------------------------------------|----r-r---
--------4-----7-----4-e-4~~~-*||----------14-14-14----------14-14-14-|----e-e---
----------------------s------*||-------------------------------------|----s-s---
~~~-x-x---x-x---x-x---t-------||-12-12-12----------12-12-12----------|-12	-t---
                                 Outro

s     s  e  s  s  e  s  s  e  s  s  e  s    q  q s e  e  e  s   2x     q  s     
--||--------------------------------------|----r-r--------------||-||-----------
--||*----------14-14-14----------14-14-14-|----e-e-11-12-13-13-*||-||*----14----
--||*-------------------------------------|----s-s-------------*||-||*----------
0-||--12-12-12----------12-12-12----------|-12	-t--------------||-||--12------

e  s  s  e  s  s  e  s    q  s s s  s  s e  e  e  s   4x q  s  e  s  s  e  s    
------------------------|----r-0-11-12-r--------------||------------------------
14-14----------14-14-14-|----e---------e-11-12-13-13-*||----14-14-14------------
------------------------|----s---------s-------------*||------------------------
------12-12-12----------|-12	---------t--------------||-12---------12-12-12---

s  e  s    q  s s s  s  q s s  s  t  t      q  s  e  s  s  e  s  s  e  s        
---------|----r-0-11-12-r-r-------------||--------------------------------|-----
14-14-14-|----e---------e-e-11-12-13-14-||*----14-14-14----------14-14-14-|-----
---------|----s---------s-s-------------||*-------------------------------|-----
---------|-12	---------t-t-------------||--12---------12-12-12----------|-----
                                            begin fade 3rd time

q  s s s  s  s e  e  e  s   4x     q  s s s  s  s e  e  e  s   4x q  H   w      
---r-0-11-12-r--------------||-||-----r-0-11-12-r--------------||----r-|-r-||
---e---------e-11-12-13-13-*||-||*----e---------e-11-12-13-13-*||----e-|-e-||
---s---------s-------------*||-||*----s---------s-------------*||----s-|-s-||
12	---------t--------------||-||--12	---------t--------------||-12	-|-t-||
                                                                     fade out		   
AcordesyTabs.com © 2008 Acordes y Tablaturas para guitarra. Tabs and Chords for guitar. Aviso Legal - Contacto
El uso de este sitio está sujeto a la aceptación de los términos y condiciones (31 usuarios online)