tablaturas, partituras y acordes para guitarra
Busca por banda/artista:
 
y/o título de la canción:
A B C D E F G H I J K L M N O P Q R S T U V W X Y Z 0 1 2 3 4 5 6 7 8 9 / Top 100 tabs
Categorías
Usuarios
usuario:
Darse de alta
password:
Artistas más visitados
Publicidad
TOP acordes y tablaturas de Foo fighters


A320
de Foo fighters
Puntúa este acorde/tab:      
(0.3/5)
Reportar este acorde/tab
  Añadir a tus favoritos
  Imprimir
(Normal Tuning) *Matt Armstrong*

Brief note :- I'm using time signatures on this one
cos I don't know how to call the song form properly yet.


Intro [0:10]

No bass for 2 bars

G-|-----------------------------------|
D-|-----------------------------------|
A-|---5---5---4h5p4-2-0-----5---5---4-|
E-|-3---3---3-----------2-3---3---3---|


Verse [0:25] - Play these 3 lines twice
G-|-------------------------|
D-|---5---5---4---4h5p4-2-0-|
A-|-------------------------|
E-|-3---3---3---3-----------|

G-|-------------------------|
D-|---5---5---4---4h5p4-2-0-|
A-|-------------------------|
E-|-3---3---3---3-----------|

G-|-------------------------------------|
D-|---0---2-0-2-5-4-2-0---5---5---5-5---|
A-|---------------------3---3---3-----3-|
E-|-3---3-------------------------------|


[0:54]
G-|-------------------------|
D-|---5---5---4---4h5p4-2-0-|
A-|-------------------------|
E-|-3---3---3---3-----------|

G-|-------------------------|
D-|---5---5---4---4h5p4-2-0-|
A-|-------------------------|
E-|-3---3---3---3-----------|

G-|---------------------------------------|
D-|---0---2-0-2-5-4-2-0---5---5---5-------|
A-|---------------------3---3---3---5-3-2-|
E-|-3---3---------------------------------|


[1:09]
G-|----------------------|
D-|-------------5---5----|
A-|-----2-2-5-5---5---5-|
E-|-3-3------------------|

G-|-------------------|
D-|-------------5---5-|
A-|-----2-2-5-5---5---|
E-|-3-3---------------|

G-|---------------------------|
D-|-------------5---5---5-----|
A-|-----2-2-5-5---5---5-------|
E-|-3-3-----------------------|

G-|-5-4-2-0-------|
D-|---------4-2-0-|
A-|---------------|
E-|---------------|


[1:23]
G-|-------------------------|
D-|---5---5---4---4h5p4-2-0-|
A-|-------------------------|
E-|-3---3---3---3-----------|

G-|-------------------------|
D-|---5---5---4---4h5p4-2-0-|
A-|-------------------------|
E-|-3---3---3---3-----------|

G-|-------------------------------------|
D-|---0---2-0-2-5-4-2-0---5---5---5-5---|
A-|---------------------3---3---3-----3-|
E-|-3---3-------------------------------|

G-|-------------------------|
D-|---5---5---4---4h5p4-2-0-|
A-|-------------------------|
E-|-3---3---3---3-----------|

G-|-------------------------|
D-|---5---5---4---4h5p4-2-0-|
A-|-------------------------|
E-|-3---3---3---3-----------|

G-|---------------------------------------|
D-|---0---2-0-2-5-4-2-0---5---5---5-------|
A-|---------------------3---3---3---5-3-2-|
E-|-3---3---------------------------------|


[1:53]
G-|----------------------------|
D-|----------------------------|
A-|-0-7-0-9-0-10-0-10-12--8==-|
E-|----------------------------|

No bass for 2 bars

G-|----------------------------|
D-|----------------------------|
A-|-0-7-0-9-0-10-0-10-12--8==-|
E-|----------------------------|


[2:14]
G-|----------------------|
D-|-------------5---5----|
A-|-----2-2-5-5---5---5-|
E-|-3-3------------------|

G-|-------------------|
D-|-------------5---5-|
A-|-----2-2-5-5---5---|
E-|-3-3---------------|

G-|--------------------|
D-|-------------5---5--|
A-|-----2-2-5-5---5----|
E-|-3-3----------------|

G-|-5-4-2-0-------|
D-|---------------|
A-|---------2-----|
E-|-----------3-3-|

G-|----------------------|
D-|-------------5---5----|
A-|-----2-2-5-5---5---5-|
E-|-3-3------------------|

G-|-------------------|
D-|-------------5---5-|
A-|-----2-2-5-5---5---|
E-|-3-3---------------|

G-|---------------------|
D-|-------------5---5---|
A-|-----2-2-5-5---5---5-|
E-|-3-3-----------------|

G-|-5-5-4-4-4-2-0---------|
D-|---------------5-------|
A-|-----------------5-----|
E-|--------------------7-|

G-|----------------------|
D-|-------------5---5----|
A-|-----2-2-5-5---5---5-|
E-|-3-3------------------|

G-|-------------------|
D-|-------------5---5-|
A-|-----2-2-5-5---5---|
E-|-3-3---------------|

G-|---------------------------|
D-|-------------5---5---5-----|
A-|-----2-2-5-5---5---5-------|
E-|-3-3-----------------------|

G-|-5-4-5-4-4-2-0---------|
D-|---------------4-2-0---|
A-|---------------------2-|
E-|-----------------------|

[2:58]
no bass for one bar

G-|-----------------------------|
D-|-----------------------------|
A-|-----------------------------|
E-|-1-1--1-1--1-1--1-1--1-0-1-0-|

Then
G-|-----------------|
D-|-----------------|
A-|-----2-2-5-5-8-8-|
E-|-3-3-------------|

G-|-----------------------------|
D-|-----------------------------|
A-|-----------------------------|
E-|-1-1--1-1--1-1--1-1--1-0-1-0-|
Play these two lines for a bit then


[3:30]
G-|-------------------|
D-|-------------------|
A-|-----2-2-5-5-10-10-|
E-|-3-3---------------|


[3:34]
G-|-----------------------------------------|
D-|-----------------------------------------|
A-|-----------------------------------------|
E-|-3-3-3-3-3-3-3-3-3-3-2-2-2-2-2-2-2-2-2-2-|

G-|-----------------------------------------|
D-|-----------------------------------------|
A-|-1-1-1-1-1-1-1-1-1-1---------------------|
E-|---------------------4-4-4-4-4-4-4-4-4-4-|
Play these 2 lines for a while then


[4:21]
G-|-----------------0-3--1-1-1-----------1-1-|
D-|-----------0-1-3------------------1-3-----|
A-|-1-1-1-1-3------------------3---3---------|
E-|------------------------------4-----------|

G-|-------5-4-4-5-4-------4-2-2-4-2--------|
D-|----------------------------------------|
A-|--------------------------------------0-|
E-|-3-3-3-----------2-2-2------------2-3---|

G-|-----------------0-3--1-1-1-1-0-----------|
D-|-----------0-1-3----------------3-1-------|
A-|-1-1-1-1-3--------------------------3-1---|
E-|----------------------------------------4-|

G-|-------5-4-4-5-4-------4-2-2-4-2--------|
D-|----------------------------------------|
A-|--------------------------------------0-|
E-|-3-3-3-----------2-2-2------------2-3---|

G-|-----------------------------------------|
D-|-----------------------------------------|
A-|-1-1-1-1-1-1-1-1-1-1---------------------|
E-|---------------------4-4-4-4-4-4-4-4-4-4-|


[4:54]
G-|-----------------------------------------|
D-|-----------------------------------------|
A-|---------------2-3-5---------------2-3-5-|
E-|-3-3-3-3-3-3-3-------2-2-2-2-2-2-2-------|

G-|-----------------------------------------|
D-|---------------0-1-3---------------------|
A-|-1-1-1-1-1-1-1-----------------------3-6-|
E-|---------------------4-4-4-4-4-4-4-4-----|

Fade out		   
AcordesyTabs.com © 2008 Acordes y Tablaturas para guitarra. Tabs and Chords for guitar. Aviso Legal - Contacto
El uso de este sitio está sujeto a la aceptación de los términos y condiciones (31 usuarios online)