tablaturas, partituras y acordes para guitarra
Busca por banda/artista:
 
y/o título de la canción:
A B C D E F G H I J K L M N O P Q R S T U V W X Y Z 0 1 2 3 4 5 6 7 8 9 / Top 100 tabs
Categorías
Usuarios
usuario:
Darse de alta
password:
Artistas más visitados
Publicidad
TOP acordes y tablaturas de Foo fighters


Estás en: Inicio > Letra F > Acordes y tablaturas de Foo fighters > Hey, johnny park!
Hey, johnny park!
de Foo fighters
Puntúa este acorde/tab:      
(0.2/5)
Reportar este acorde/tab
  Añadir a tus favoritos
  Imprimir
(Drop D Tuning)


Intro
G|-----------------------------------------------------------------|
D|------------------------------------------------------5----------|
A|--2-2-2--0-0-0------------------------5-5---5h7-7-5h7---7--7-5---|
D|----------------2---2-2-2---2--4-5-5-----------------------------|


Verse
G|----------------------------------------------7-6-7--------------|
D|--------4--4---4-----7-7---7------5-5---5-----------7------------|
A|------2------2---2/5-----5---5--2-----2---2--5--------5----------|
D|--2p0------------------------------------------------------------|
         Wish that i had another   stab at the under cover

G|------------------2----------------------------------------------|
D|----4-4---4------2--2--------------------------------------------|
A|--2-----2---2--0------0------------------------------------------|
D|-------------------------2--2--0h2p0h2--0h2p0h2-----2----2-4-----|
    Was it a change in mind for you ?


Bridge
G|-----------------------------------------------------------------|
D|--------------------------------2-2--4---------------------------|
A|---------------------------5-5---------5-------------------------|
D|--5-5--4-4--2-2--5-5--0-0----------------------------------------|
 (2x)

G|-----------------------------------------------------------------|
D|--------------------------7----5-4-------------------------------|
A|----------------------------5------5--3--------------------------|
D|--5-5--4-4--2-2--5-5--0-0----------------------------------------|


Chorus
G|-----------------------------------------------------------------|
D|--------3h5---------4--------------------------------------------|
A|--3-3-3------2-2-2-----------------------------------------------|
D|-----------------------3-3-3-3---0-0-0-0-------------------------|

G|-----------------------------------------------------------------|
D|--------3h5---------4--3-3-3-3-----------------------------------|
A|--3-3-3------2-2-2---------------5-------------------------------|
D|-----------------------------------------------------------------|		   
AcordesyTabs.com © 2008 Acordes y Tablaturas para guitarra. Tabs and Chords for guitar. Aviso Legal - Contacto
El uso de este sitio está sujeto a la aceptación de los términos y condiciones (36 usuarios online)