tablaturas, partituras y acordes para guitarra
Busca por banda/artista:
 
y/o título de la canción:
A B C D E F G H I J K L M N O P Q R S T U V W X Y Z 0 1 2 3 4 5 6 7 8 9 / Top 100 tabs
Categorías
Usuarios
usuario:
Darse de alta
password:
Artistas más visitados
Publicidad
TOP acordes y tablaturas de Foo fighters


Estás en: Inicio > Letra F > Acordes y tablaturas de Foo fighters > I'll stick around
I'll stick around
de Foo fighters
Puntúa este acorde/tab:      
(0.3/5)
Reportar este acorde/tab
  Añadir a tus favoritos
  Imprimir
(Normal Tuning)


Intro/Chorus
G|----------------------------------------------------------------|
D|--------1-1-1---------------------------------------------------|
A|--------------0--1--3-------------------------------------------|
E|--3-3-----------------------------------------------------------|


Verse
G|----------------------------------------------------------------|
D|----------------------------------------------------------------|
A|------1---------------------------------------------------------|
E|-1-3-----3--3--0---repeat-several-times-then-ride-3-3-3-3-3-----|


Bridge
G|----------------------------------------------------------------|
D|----------------------------------------------------------------|
A|-1--1--1-1-----------------3------------------------------------|
E|--------------3--3-3--3-----------------------------------------|


Outro
G|----------------------------------------------------------------|
D|----------------------------------------------------------------|
A|-6-6-6-6-6-6-6-6-8-8-8-8-8-8-8-8-----------------5-5-5-3-3-5-5--|
E|---------------------------------3-3-3-3-3-3-3-3----------------|

______________________________________
Foo Fighters - I'll Stick Around (Bass)
(Normal Tuning)


Riff 1
G|--------------------------|------------------------|
D|------------------------3-|----------------------3-|
A|------------6--6-----3----|----------6--6-----3----|
E|---3--3--r--------6-------|-3--3--r--------6-------|

G|------------------------|--------------------------|
D|----------------------3-|--------------------------|
A|----------6--6-----3----|----------6--6-----3------|
E|-3--3--r--------6-------|-3--3--r--------6-----6---|


Riff 2
G|--------------------------|--------------------------|
D|*------------------------*|--------------------------|
A|*----------1-------------*|--------------------------|
E|--1--3--r-----3--r--3--0--|--3--3--3--3--3--3--3--3--|
 (x6)

G|--------------------------| 
D|--------------------------|
A|--------------------------| 
E|--3--3--3--3--3--3--3--3--|

*These are the verse riffs, play them when the verses are played. 
Listen to the song to figure out where they go. 
Sometimes Riff 2 is broken up and only the repeated part is played, 
and somewhere in the song the tail of riff 2 (the E:--3--3--3--3--3...) 
is played after riff 1. ...Then before the chorus, this bit is played 
G|--------------------------------------------------------------------| 
D|--------------------------------------------------------------------| 
A|--1----1----1--1-----------------------------3--(let-ring......)----| 
E|--------------------3-----3----3----3--3--0-------------------------| 
I've taken all and i've endured ... 

G|------------------------------------------------------------------------------------------|
D|------------------------------------------------------------------------------------------|
A|--1-----1-----1--1-----------------------3----3--3--3--3--3--3--3--3--3--3--3--3--3--3--3-|
E|----------------------3----3----3--3--0---------------------------------------------------|
One day it all will fade i'm sure ....


Then play Riff 1 under the chorus. "I don't owe you anything, I don't owe..."
This is the bit before the ending of the song. You know where it goes.

G|--------------------------|--------------------------| 
D|*-------------------------|--3--3--3--3--3--3--3--3--| 
A|*-6--6--6--6--6--6--6--6--|--------------------------| 
E|--------------------------|--------------------------| 
I'll stick around I'll stick around 

G|--------------------------|--------------------------| 
D|--------------------------|-------------------------*| 
A|--------------------------|--5--5--5--3--3--5--5--5-*| 
E|--3--3--3--3--3--3--3--3--|--------------------------| 
And learn from all that came from it.

At the very end of the song, play Riff 1 again twice,
and the last two notes of the song are C, played on the A string (fret 3 on the A string)		   
AcordesyTabs.com © 2008 Acordes y Tablaturas para guitarra. Tabs and Chords for guitar. Aviso Legal - Contacto
El uso de este sitio está sujeto a la aceptación de los términos y condiciones (32 usuarios online)