tablaturas, partituras y acordes para guitarra
Busca por banda/artista:
 
y/o título de la canción:
A B C D E F G H I J K L M N O P Q R S T U V W X Y Z 0 1 2 3 4 5 6 7 8 9 / Top 100 tabs
Categorías
Usuarios
usuario:
Darse de alta
password:
Artistas más visitados
Publicidad
TOP acordes y tablaturas de Foo fighters


Oh, george
de Foo fighters
Puntúa este acorde/tab:      
(0.6/5)
Reportar este acorde/tab
  Añadir a tus favoritos
  Imprimir
(Normal Tuning)


Verse
G|----------------------------------------------------------------|
D|------------------------------3--3--3h5-3-----------------------|
A|---------------6-6-6--4-5-6-----------------3---3-3-3--2--------|
E|-5--5-5--5-5-5--------------------------------------------------|
  the  train that I got onto  up and left that town

G|----------------------------------------------------------------|
D|----------------------------------------------------------------|
A|----------------------------------------------------------------|
E|--5--5-5-5-5--2--2--0-2-3--3-3-3-3-3-3-3-3-3-3-3----------------|
    thew it up  as it went down


Chorus
G|----------------------------------------------------------------|
D|--------------3-2--2--2-2-2------------3-2--2-2-2-2-------------|
A|----------------------------------------------------------------|
E|--1---1--1-1-------------------1-1-1-1--------------------------|
           Fools were drawing       trying to save that day

G|----------------------------------------------------------------|
D|--------------3--2---2--2-2-------------------------------------|
A|------------------------------5-5-5-5-5-5-5-5-5-5---------------|
E|--1--1--1--1----------------------------------------------------|
            I don't doubt that anyway		   
AcordesyTabs.com © 2008 Acordes y Tablaturas para guitarra. Tabs and Chords for guitar. Aviso Legal - Contacto
El uso de este sitio está sujeto a la aceptación de los términos y condiciones (29 usuarios online)