tablaturas, partituras y acordes para guitarra
Busca por banda/artista:
 
y/o título de la canción:
A B C D E F G H I J K L M N O P Q R S T U V W X Y Z 0 1 2 3 4 5 6 7 8 9 / Top 100 tabs
Categorías
Usuarios
usuario:
Darse de alta
password:
Artistas más visitados
Publicidad
TOP acordes y tablaturas de Foo fighters


The one
de Foo fighters
Puntúa este acorde/tab:      
(0.5/5)
Reportar este acorde/tab
  Añadir a tus favoritos
  Imprimir
Foo fighters are awesome and so is this song. ITS IN D,A,D,G tuning


Intro: Play 3X

----------------------------------------------
----------------------------------------------
----------------------------------------5-6---
--5/7-7-7-7-7--5/7-7-7-7-7--5/7-7-7-7-7-------

then 

-------------------------------------------------------
------------------------------------------------7--5--4
-------------------------------------------------------
--5/7-7-7-7-7--5/7-7-7-7-7--5/7-7-7-7-7------5/--------

Verse: for the second time u play the verse don't to the hammer-pull offs just play the A-5's in its place


-----------------------------------------------------------------------
-----------------------------------------------------------------------
5-5-5-5------------------------------------------------5-5-5-5-7p54h5p4
--------7-7-7-7-5-5-5-5--3-3-3-3--2-2-2-2-0-0-0-0---------------------

Chorus:


------------------------------------------------------------------
------------------------------------------------------------------
--------------5-5-5-5-5-------------------------------------------
--7-7-7-7-7--------------2-2-2-2--------3-3-3-3-3-3/5-5-5-5-5-5---

Bridge 1:
----------------------------------------------
----------------------------------------------
----------------------------------------5-6---
--5/7-7-7-7-7--5/7-7-7-7-7--5/7-7-7-7-7-------


----------------------------------------------
----------------------------------------------
----------------------------------------6-5---
--5/7-7-7-7-7--5/7-7-7-7-7--5/7-7-7-7-7-------

Back to verse and instead of hammer-ons and pull offs play a-5

And then chorus

Bridge 2
-----------------------------------
-----------------------------------
-----------------------------------
--0-0-0-0-0-0-0-2-3-3-3-3-3-3-3-3--

then back to intro-chorus, and play chorus while guitar solo 		   
AcordesyTabs.com © 2008 Acordes y Tablaturas para guitarra. Tabs and Chords for guitar. Aviso Legal - Contacto
El uso de este sitio está sujeto a la aceptación de los términos y condiciones (33 usuarios online)