tablaturas, partituras y acordes para guitarra
Busca por banda/artista:
 
y/o título de la canción:
A B C D E F G H I J K L M N O P Q R S T U V W X Y Z 0 1 2 3 4 5 6 7 8 9 / Top 100 tabs
Categorías
Usuarios
usuario:
Darse de alta
password:
Artistas más visitados
Publicidad
TOP acordes y tablaturas de Frank zappa


Estás en: Inicio > Letra F > Acordes y tablaturas de Frank zappa > My guitar want's to kill your mama
My guitar want's to kill your mama
de Frank zappa
Puntúa este acorde/tab:      
(0.8/5)
Reportar este acorde/tab
  Añadir a tus favoritos
  Imprimir
Intro
 |4x                  |4x                            |
G|--------------------|------------------------------|
D|--------------------|*-------4-----2--2-----2--4--*|
A|--------------2-1---|*----------4--------4--------*|
E|-2--2--0-0--0-----2-|---2--------------------------|

Verses/Chorus
 |4x                               |4x
G|---------------------------------|------------------------------|
D|o-------4-----2--2-----2--4-----o|o-------4-----2--2----2---2--o|
A|o----------4--------4-----------o|o----------4--------4---4----o|
E|---2-----------------------------|---2--------------------------|

                                 2x                             2x
G|--------4-----2--2-----2--4------|--------4-----2--2----2---2---|
D|o----------4--------4-----------o|o----------4--------4---4----o|
A|o--2----------------------------o|o--2-------------------------o|
E|---------------------------------|------------------------------|

G|-------6-----4--4-----4--6--|-------6-----4--6-6-6-6-|
D|----------6--------4--------|----------6-------------|
A|--4-------------------------|--4---------------------|
E|----------------------------|------------------------|

Guitar Solo [play this twice]
 |4x                                 |2x                                 |
G|-----------------------------------|-----------------------------------|-----
D|*---------------------------------*|*-------------------------2-2-1-1-*|-----
A|*-------------------------2-2-1-1-*|*-2-2-2-2-2-2-2-2-0-0-0-0---------*|-4-4-
E|--2-2-2-2-2-2-2-2-0-0-0-0----------|-----------------------------------|-----

-------------------------|-------------------------|
-----------------4-4-3-3-|-------------------------|
-4-4-4-4-4-4-2-2---------|-4-4-4-4-4-4-4-4-2-------|
-------------------------|-------------------------|

some variation through the song...
G|---------------4-3----| |---------------------| |----4---2-2----2---2-|
D|----4---2-2--2-----4--| |----4---2-2----2---2-| |------4------4---4---|
A|------4---------------| |------4------4---4---| |-2-------------------|
E|-2--------------------| |-2-------------------| |---------------------|

...another one tabbed by ridopoco...		   
AcordesyTabs.com © 2008 Acordes y Tablaturas para guitarra. Tabs and Chords for guitar. Aviso Legal - Contacto
El uso de este sitio está sujeto a la aceptación de los términos y condiciones (70 usuarios online)