tablaturas, partituras y acordes para guitarra
Busca por banda/artista:
 
y/o título de la canción:
A B C D E F G H I J K L M N O P Q R S T U V W X Y Z 0 1 2 3 4 5 6 7 8 9 / Top 100 tabs
Categorías
Usuarios
usuario:
Darse de alta
password:
Artistas más visitados
Publicidad
TOP acordes y tablaturas de Frank zappa


Estás en: Inicio > Letra F > Acordes y tablaturas de Frank zappa > Titties and beer
Titties and beer
de Frank zappa
Puntúa este acorde/tab:      
(0.2/5)
Reportar este acorde/tab
  Añadir a tus favoritos
  Imprimir
Riff A
G|------9p8-------------9p8---------------------------------------|
D|--4--------7--2/3-4--------7--2--4------------------------------|
A|----------------------------------------------------------------|
E|----------------------------------------------------------------|

Riff B                 Repeat 3x
G|-----------------------------|---------------------|
D|-----------------------------|-------------2-4-2-4-|
A|-----------------------------|---------------------|
E|-7-7-7--5-5-5--0-0-0--2-2-2--|-7-7-7-5-5-5---------|

Riff C                Repeat 4x
G|-----------------------------|
D|-----------------------------|
A|-----------------------------|
E|-7-7-7--5-5-5--0-0-0--2-2-2--|

Riff D
G|------------------------------|
D|-9-9--7-7--2--4-4-------------|
A|------------------------------|
E|------------------------------

the song goes like that:

Riff A
Riff B
Riff A 
Riff C
Riff A
Riff D

I Couldn't get the end of the song but you can just repeat the A riff..		   
AcordesyTabs.com © 2008 Acordes y Tablaturas para guitarra. Tabs and Chords for guitar. Aviso Legal - Contacto
El uso de este sitio está sujeto a la aceptación de los términos y condiciones (67 usuarios online)