tablaturas, partituras y acordes para guitarra
Busca por banda/artista:
 
y/o título de la canción:
A B C D E F G H I J K L M N O P Q R S T U V W X Y Z 0 1 2 3 4 5 6 7 8 9 / Top 100 tabs
Categorías
Usuarios
usuario:
Darse de alta
password:
Artistas más visitados
Publicidad
TOP acordes y tablaturas de Green day


Estás en: Inicio > Letra G > Acordes y tablaturas de Green day > Don't leave me
Don't leave me
de Green day
Puntúa este acorde/tab:      
(0.3/5)
Reportar este acorde/tab
  Añadir a tus favoritos
  Imprimir
Intro:
------

G|--------------------------------------
D|--------------------------------------
A|---13/12/11-10/9/8-7/6/5-4/3/2--------
E|--------------------------------------

Verse:
------

G|----------------------------------------------
D|----------------------------------------------
A|-2-2-0-0-5-5-2---0h2p0h2-2-0-0-5-------
E|----------------------------------------------

G|----------------------------------------------
D|----------------------------------------------
A|-2-2-0-0-5-5-2---0h2p0h2-2-0-0-5-5-2----------
E|----------------------------------------------

G|----------------------------------------------
D|----------------------------------------------
A|-0h2p0h2-2-0-0-5-5-2-0h2p0h2-2-0-0-5---
E|----------------------------------------------

G|----------------------------------------------
D|----------------------------------------------
A|-2-2-0-0-5-5-2---0h2p0h2-2-0-0-5-5-2----------
E|----------------------------------------------

G|----------------------------------------------
D|----------------------------------------------
A|-0h2p0h2-2-0-0-5-5-2-0h2p0h2-2-0-0-5-5-2------
E|----------------------------------------------

Chorus:
-------		

G|--------------------------------------
D|-------------------------------------- repeat 2x
A|--------------------------------------
E|--5-5-5-5-5-5-5-5-2-2-2-2-2-2-2-2-----

Then verse
Then chorus 2x

Bridge:
-------

G|-----------------------------------------
D|-----------------------------------------
A|-2-2-0-0-5-5-2---0h2p0h2-2-0-0-5-5-2-----
E|-----------------------------------------

G|-----------------------------------------
D|-----------------------------------------
A|-0h2p0h2-2-0-0-5-5-2-0h2p0h2-2-0-0-5-5-2-
E|-----------------------------------------

G|-----------------------------------------
D|----------------------------------------- repeat 3x
A|-----------------------------------------
E|--5~~~~~~~~----2~~~~~~~~2~~~~~~~~~~------

G|-----------------------------------------
D|-----------------------------------------
A|-----------------------------------------
E|--5~~~~~~~~----2~~~~2-2-2-2-2------------

Then verse
Then chorus 2x

Outro:
------

G|-----------------------------------------
D|-----------------------------------------
A|-2-2-0-0-5-5-2-0h2p0h2-2-0-0-5----
E|-----------------------------------------		   
AcordesyTabs.com © 2008 Acordes y Tablaturas para guitarra. Tabs and Chords for guitar. Aviso Legal - Contacto
El uso de este sitio está sujeto a la aceptación de los términos y condiciones (27 usuarios online)