tablaturas, partituras y acordes para guitarra
Busca por banda/artista:
 
y/o título de la canción:
A B C D E F G H I J K L M N O P Q R S T U V W X Y Z 0 1 2 3 4 5 6 7 8 9 / Top 100 tabs
Categorías
Usuarios
usuario:
Darse de alta
password:
Artistas más visitados
Publicidad
TOP acordes y tablaturas de Green day


Dry-ice
de Green day
Puntúa este acorde/tab:      
(0.5/5)
Reportar este acorde/tab
  Añadir a tus favoritos
  Imprimir
Intro
G-----------------------
D-----------------------
A--------1/5----------7-
E--5-------------5------

Verse
G---------------------------------
D---------------------------------
A---------4-4-4-4-5-5-5-5-0-0-0-0-
E-5-5-5-5-------------------------

G----------------------------------------
D----------------------------------------
A---------4-4-4-4-5-5-5-5-7-7-7--7-5-----
E-5-5-5-5----------------------------7-5-

Chorus
G---------------------------------|-----------------------
D---------------------------------|-----------------------
A-5-5-5-5-4-3-0-0-0-0-3-4-5-5-5-5-|-5-5-5-5-6-7-7-7-7-6-5-
E---------------------------------|-----------------------

Bridge
G--------------------------------------
D--------------------------------------
A-----------------5-5-5-5-5-5-5--------
E-5-5-5-5-7-7-7-7----------------7-6-5-

G-------------------------------------------
D-------------------------------------------
A-----------------5-5-5-5-7-7-7-7--5--------
E-5-5-5-5-7-7-7-7---------------------7-6-5-
Under the Solo you play the verse.		   
AcordesyTabs.com © 2008 Acordes y Tablaturas para guitarra. Tabs and Chords for guitar. Aviso Legal - Contacto
El uso de este sitio está sujeto a la aceptación de los términos y condiciones (22 usuarios online)