tablaturas, partituras y acordes para guitarra
Busca por banda/artista:
 
y/o título de la canción:
A B C D E F G H I J K L M N O P Q R S T U V W X Y Z 0 1 2 3 4 5 6 7 8 9 / Top 100 tabs
Categorías
Usuarios
usuario:
Darse de alta
password:
Artistas más visitados
Publicidad
TOP acordes y tablaturas de Elvis presley


Estás en: Inicio > Letra E > Acordes y tablaturas de Elvis presley > Here comes santa claus (right down santa claus lane)
Here comes santa claus (right down santa claus lane)
de Elvis presley
Puntúa este acorde/tab:      
(0.3/5)
Reportar este acorde/tab
  Añadir a tus favoritos
  Imprimir
Tom: D
Intro: (Piano arranged for guitar)
    Dropped D
         D           D           D           D
    e |  | --5--2--3-----5--2--3-----5--2--3-----5--2--3----- |  | 
    B |  | -----------5-----------5-----------5-----------5-- |  | 
    G |  | -------------------------------------------------- |  | 
    D |  | -------------------------------------------------- |  | 
    A |  | --------0-----------0-----------0-----------0----- |  | 
    D |  | --0-----------0-----------0-----------0----------- |  | 
    D
    Here comes Santa Claus,
    D
    Here comes Santa Claus,
    A7
    Right down Santa Claus Lane.


    A7
    Vixen and Blitzen and all his reindeer
    D
    Are pulling on the rein.
    G                  F#m7
    Bells are ringing, children singing
    Em7              D
    All is merry and bright.
    G                       D7M
    Hang your stockings and say your pray'rs,
           Em7         A7      D
    'Cause Santa Claus comes tonight.


    D
    Here comes Santa Claus,
    D
    Here comes Santa Claus,
    A7
    Right down Santa Claus Lane.


    A7
    He's got a bag that is filled with toys
    D
    for the boys and girls again.
    G                       F#m7
    Hear those sleigh bells jingle jangle,
    Em7              D
    What a beautiful sight.
    G            D7M
    Jump in bed, cover up your head,
           Em7         A7      D
    'Cause Santa Claus comes tonight.


    D
    Here comes Santa Claus,
    D
    Here comes Santa Claus,
    A7
    Right down Santa Claus Lane.


    A7
    He doesn't care if you're a rich or poor boy,
    D
    He loves you just the same.
    G                F#m7
    Santa knows that we're God's children,
    Em7                   D
    That makes everything right.
    G                     D7M
    Fill your hearts with Christmas cheer,
           Em7         A7      D
    'Cause Santa Claus comes tonight.


    D
    Here comes Santa Claus,
    D
    Here comes Santa Claus,
    A7
    Right down Santa Claus Lane.


    A7
    He'll come around when the chimes ring out
    D
    It's Christmas morn again.
    G                   F#m7
    Peace on Earth will come to all
       Em7                D
    If we just follow the light
    G                        D7M
    Let's give thanks to the Lord above,
           Em7         A7      D
    'Cause Santa Claus comes tonight.
           Em7         A7      D
    'Cause Santa Claus comes tonight.

    Ending:
         D           D           D           D           D
    e |  | --5--2--3-----5--2--3-----5--2--3-----5--2--3-----2-- |  | 
    B |  | -----------5-----------5-----------5-----------5--3-- |  | 
    G |  | --------------------------------------------------2-- |  | 
    D |  | --------------------------------------------------0-- |  | 
    A |  | --------0-----------0-----------0-----------0-----0-- |  | 
    D |  | --0-----------0-----------0-----------0-----------0-- |  |  		   
AcordesyTabs.com © 2008 Acordes y Tablaturas para guitarra. Tabs and Chords for guitar. Aviso Legal - Contacto
El uso de este sitio está sujeto a la aceptación de los términos y condiciones (37 usuarios online)