tablaturas, partituras y acordes para guitarra
Busca por banda/artista:
 
y/o título de la canción:
A B C D E F G H I J K L M N O P Q R S T U V W X Y Z 0 1 2 3 4 5 6 7 8 9 / Top 100 tabs
Categorías
Usuarios
usuario:
Darse de alta
password:
Artistas más visitados
Publicidad
TOP acordes y tablaturas de Elvis presley


Judy
de Elvis presley
Puntúa este acorde/tab:      
(0.4/5)
Reportar este acorde/tab
  Añadir a tus favoritos
  Imprimir
Tom: G
Intro:
         D
    e |  | -------------------------------------------------- |  | 
    B |  | -------------------------------------------------- |  | 
    G |  | --------------2--2-----2--------------2--2-----2-- |  | 
    D |  | --0--0--4--4--------4-----0--0--4--4--------4----- |  | 
    A |  | -------------------------------------------------- |  | 
    E |  | -------------------------------------------------- |  | 
         G
    They say you found somebody new
                              D
    Whose love will always be true
            G                     C
    I don't know what it is to be alone
           A                          D
    That's why I dread to know you're gone


       G
    Oh Judy, don't let our sweet love
                                       D
    Wither and die like flowers in the fall
       D
    Oh Judy, don't you know it's you
                   G
    I love most of all


        G                                       C
    Oh, please come back I promise always to be true
       D                                            G
    Oh Judy, there'll never be anyone else dear but you

    Solo:
          G
    e |  | ---------------------------------------------------- |  | 
    B |  | *--------------------------------------------------* |  | 
    G |  | ---------------------------------------------------- |  | 
    D |  | ---------------------------------------------------- |  | 
    A |  | *--------2--2--5--5--2--5--------2--2--5--5--2--5--* |  | 
    E |  | ---3--3--------------------3--3--------------------- |  | 
          D
    e |  | ---------------------------------------------------- |  | 
    B |  | *--------------------------------------------------* |  | 
    G |  | ---------------2--2-----2--------------2--2-----2--- |  | 
    D |  | ---0--0--4--4--------4-----0--0--4--4--------4------ |  | 
    A |  | *--------------------------------------------------* |  | 
    E |  | ---------------------------------------------------- |  | 
         D                       G
    e |  | ------------------------------------------------- |  | 
    B |  | ------------------------------------------------- |  | 
    G |  | --------------2--2-----2------------------------- |  | 
    D |  | --0--0--4--4--------4---------------------------- |  | 
    A |  | -------------------------------2--2--5--5--2--5-- |  | 
    E |  | --------------------------3--3------------------- |  | 
        G                                       C
    Oh, please come back I promise always to be true
       D                                            G
    Oh Judy, there'll never be anyone else dear but you
       D                                            G
    Oh Judy, there'll never be anyone else dear but you
       D                                            G
    Oh Judy, there'll never be anyone else dear but you   --> Fade Out 		   
AcordesyTabs.com © 2008 Acordes y Tablaturas para guitarra. Tabs and Chords for guitar. Aviso Legal - Contacto
El uso de este sitio está sujeto a la aceptación de los términos y condiciones (23 usuarios online)